father lucifer

(/) Slide Up  (\) Slide Down  (h) Hammer On  (p) Pull Off  (b) Bend (r) Release (v) Vibrato


E|--4--2--0-----------------0-----2-----4--2--0-----------------0-----------4--2--0-----------
B|-----------4--2--0--2--4-----4-----2-----------4--2--0--2--4-----4--4--2-----------4--2--0--
G|--------------------------------------------------------------------------------------------
D|--------------------------------------------------------------------------------------------
A|--------------------------------------------------------------------------------------------
E|--------------------------------------------------------------------------------------------



E|--------0-----2--4--2--0-----------------0-----2--------
B|--2--4-----4--------------4--2--0--2--4-----4-----2--2--
G|--------------------------------------------------------
D|--------------------------------------------------------
A|--------------------------------------------------------
E|--------------------------------------------------------
http://www.guitartabcreator.com
Guitar Tab Creator is intended to store guitar tab created through the tool. It currently does not support in-line text editing. Any text you place in here will be lost. If you need to comment on your tab, please use the "Tab Notes" section located below.