el condor pasa

(/) Slide Up  (\) Slide Down  (h) Hammer On  (p) Pull Off  (b) Bend (r) Release (v) Vibrato


E|-----------------------------------------0--------------------------
B|-----------------------------0--3--3--0-----3--0--0-----------------
G|-----------------0-----0--2--------------------------2--0-----0-----
D|-----2--1--2--4-----4--------------------------------------2-----2--
A|--2-----------------------------------------------------------------
E|--------------------------------------------------------------------



E|-----0-----0-----0-----0--3--0--------0-----------0-----0-----0-----0--3--0--------0--------------
B|--0-----4-----4-----4-----------3--3-----3--0--0-----4-----4-----4-----------3--3-----3--0--0-----
G|--------------------------------------------------------------------------------------------------
D|--------------------------------------------------------------------------------------------------
A|--------------------------------------------------------------------------------------------------
E|--------------------------------------------------------------------------------------------------



E|-----------
B|-----------
G|--2--0-----
D|--------2--
A|-----------
E|-----------
http://www.guitartabcreator.com
Guitar Tab Creator is intended to store guitar tab created through the tool. It currently does not support in-line text editing. Any text you place in here will be lost. If you need to comment on your tab, please use the "Tab Notes" section located below.