diamond dust

(/) Slide Up  (\) Slide Down  (h) Hammer On  (p) Pull Off  (b) Bend (r) Release (v) Vibrato


E|-------------------------9-------------------------------------------
B|---------------10----10-----12--10-------------------------------13--
G|--9----10--12-----------------------9----10--14----12----13--15------
D|---------------------------------------------------------------------
A|---------------------------------------------------------------------
E|---------------------------------------------------------------------



E|------12--------------------------------------13--11----------11------
B|--15--------13--9---------------------11--13----------13--11------13--
G|-------------------9----10--12----13----------------------------------
D|----------------------------------------------------------------------
A|----------------------------------------------------------------------
E|----------------------------------------------------------------------



E|---------------------------------------9------11-----
B|--11--9--7--6--7--9--9--9--7-----7--9-----11------9--
G|------------------------------9----------------------
D|-----------------------------------------------------
A|-----------------------------------------------------
E|-----------------------------------------------------
http://www.guitartabcreator.com
Guitar Tab Creator is intended to store guitar tab created through the tool. It currently does not support in-line text editing. Any text you place in here will be lost. If you need to comment on your tab, please use the "Tab Notes" section located below.