definitely maybe

(/) Slide Up  (\) Slide Down  (h) Hammer On  (p) Pull Off  (b) Bend (r) Release (v) Vibrato


E|---------------------------------14--12------10---------
B|--12\10--10\8--8\7--7\5------12----------10------12-----
G|-------------------------12-----------------------------
D|--------------------------------------------------------
A|--------------------------------------------------------
E|--------------------------------------------------------



E|--19\17--17\15--15\14--14\12-------------------7--
B|------------------------------12--11--10--8\5-----
G|--------------------------------------------------
D|--------------------------------------------------
A|--------------------------------------------------
E|--------------------------------------------------



E|-----------------12/14--15--14--12\10--12----------------------------------------------------------
B|--10--12/14--15----------------------------14------------------------------------------------------
G|-----------------------------------------------14--12--11--9\7--9----------------------------------
D|------------------------------------------------------------------------5--5-----------------------
A|---------------------------------------------------------------------7--------7--7-----------------
E|------------------------------------------------------------------------------------7--6--5--3--5--



E|-----------------------------------------------
B|--------------------------5--6--5--------------
G|--------------4--5-----7-----------7--5-----5--
D|-----------7-----------------------------7-----
A|--------0-----------7--------------------------
E|--7--7-----------------------------------------
http://www.guitartabcreator.com
Guitar Tab Creator is intended to store guitar tab created through the tool. It currently does not support in-line text editing. Any text you place in here will be lost. If you need to comment on your tab, please use the "Tab Notes" section located below.