cinnamon girl 1 dbgdad 2 standard

(/) Slide Up  (\) Slide Down  (h) Hammer On  (p) Pull Off  (b) Bend (r) Release (v) Vibrato


E|-----------------------------------------------------------------------------
B|-----------------------------------------------------------------------------
G|--5--7--7--7--------------------5--7--7--7-----------------0-----------------
D|--5--7--7--7--0-----------------5--7--7--7--0--------------0-----------------
A|-----------------3--2--0--3--5-----------------3--2--0--3-----3--2--0--3--0--
E|--------------------------3--5--------------------------3--------------3-----



E|-----------0-----------------0-----------------0-------------------0--------------------------
B|--------3-----3-----------1-----1-------------------1-----------------3--------------5--7-----
G|-----2-----------2-----0-----------0--------0----------0--------0--------------------5--7-----
D|--0-----------------2--------------------2-------------------0-----------0-----------5--7--0--
A|--------------------------------------3-------------------2-----------------3--5--0-----------
E|----------------------------------------------------------------------------3--5--0-----------



E|-------------------------------
B|-------------------------------
G|----------------------2--------
D|--7-9--9--9------7-5--2--2--0--
A|--7\7--7--9------5/3--0--2--2--
E|-------------------------0--3--



E|-----------------2--2--2-----------------------2--2--2-----------
B|-----------------3--3-----3--------------------3--3-----3--------
G|-----------0-----2--2--------2-----------0-----2--2--------2-----
D|-----2--------0--0--0--------------2--------0--0--0-----------2--
A|--------2-----------------------------2-----------------------2--
E|--0-----------------------------0-----------------------------0--
http://www.guitartabcreator.com
Guitar Tab Creator is intended to store guitar tab created through the tool. It currently does not support in-line text editing. Any text you place in here will be lost. If you need to comment on your tab, please use the "Tab Notes" section located below.