cause we've ended as lovers

(/) Slide Up  (\) Slide Down  (h) Hammer On  (p) Pull Off  (b) Bend (r) Release (v) Vibrato


E|--8b8--10b8--10b10--8--10b8--10b8--10b8--10--10--8---------
B|-----------------------------------------------------------
G|----------------------------------------------------10--9--
D|----------------------------------------------------10-----
A|----------------------------------------------------10-----
E|----------------------------------------------------8------



E|--10--8--8-------------------6--4--4-------------------3--1--1---------------------------
B|--------------------------------------4----------------------------------------5/6--5/6--
G|------------7--7--5--5-------------------5/7--5--5---------------------------------------
D|------------------------3/6-------------------------3-----------5--5--3--5--6------------
A|-----------------------------------------------------------------------------------------
E|-----------------------------------------------------------------------------------------



E|--10--8--10-------------------6--4--4--------------3--1--1-----------------------------------
B|-------------7--7--5--5----------------4-----------------------------------6--5--------------
G|-------------------------3/6--------------5--6--5--------------------------5--5--------5-----
D|------------------------------------------------------------5--5--3--5--6--5-----5--7-----7--
A|---------------------------------------------------------------------------------------------
E|---------------------------------------------------------------------------------------------
http://www.guitartabcreator.com
Guitar Tab Creator is intended to store guitar tab created through the tool. It currently does not support in-line text editing. Any text you place in here will be lost. If you need to comment on your tab, please use the "Tab Notes" section located below.