black magic woman 2

(/) Slide Up  (\) Slide Down  (h) Hammer On  (p) Pull Off  (b) Bend (r) Release (v) Vibrato


E|-----------------------------5----------3----------5----------3------------------------------10--
B|--8p6---------6h8p6--8----------8--6\5-----6--5\3-----8--6\5-----6--5\3------------------10------
G|-------7b9b7------------9b7----------------------------------------------------------10----------
D|---------------------------------------------------------------------------------12--------------
A|-----------------------------------------------------------------------------12------------------
E|-------------------------------------------------------------------------10----------------------



E|---------------------------------------------------------------------
B|--15--13--15b13--10--13b15--13p10--13b15--15b13p10-------------------
G|----------------------------------------------------12--14b12p10--9--
D|---------------------------------------------------------------------
A|---------------------------------------------------------------------
E|---------------------------------------------------------------------



E|----------12h13--12--13p12p10---------------------------10------------------------
B|--10--13-----------------------13b15--15b13--10--13b15------13--10----------------
G|--------------------------------------------------------------------12b14b12--10--
D|----------------------------------------------------------------------------------
A|----------------------------------------------------------------------------------
E|----------------------------------------------------------------------------------
http://www.guitartabcreator.com
Guitar Tab Creator is intended to store guitar tab created through the tool. It currently does not support in-line text editing. Any text you place in here will be lost. If you need to comment on your tab, please use the "Tab Notes" section located below.