black magic woman

(/) Slide Up  (\) Slide Down  (h) Hammer On  (p) Pull Off  (b) Bend (r) Release (v) Vibrato


E|-------------------------------------------------------------------------------
B|--------------------------------------10-------------------------10------------
G|--10--7--7/9\7----10h12p10--7--7/9\7------12--10p9--12--10--9\7------12--10\9--
D|-------------------------------------------------------------------------------
A|-------------------------------------------------------------------------------
E|-------------------------------------------------------------------------------



E|-----------------------------10--10------10---------------------------------
B|-------------------------10----------13------13--10--13--15--13p10--13--15--
G|--12--10--9----------10-----------------------------------------------------
D|-----------------12---------------------------------------------------------
A|-------------12-------------------------------------------------------------
E|----------------------------------------------------------------------------



E|--10-----------------------------------12--13--12h13p12-------------------------
B|------13--10-------------------10--13--------------------13--15--13p10--13--15--
G|--------------12--14--12p10\9---------------------------------------------------
D|--------------------------------------------------------------------------------
A|--------------------------------------------------------------------------------
E|--------------------------------------------------------------------------------



E|--10---------------------------------------12--13--13/15--15--17--15p13------
B|------13p10----------------------------13--------------------------------15--
G|-------------12--14--12p10h12------14----------------------------------------
D|-------------------------------14--------------------------------------------
A|-----------------------------------------------------------------------------
E|-----------------------------------------------------------------------------
http://www.guitartabcreator.com
Guitar Tab Creator is intended to store guitar tab created through the tool. It currently does not support in-line text editing. Any text you place in here will be lost. If you need to comment on your tab, please use the "Tab Notes" section located below.