aqualung

(/) Slide Up  (\) Slide Down  (h) Hammer On  (p) Pull Off  (b) Bend (r) Release (v) Vibrato


E|-----------------------------------------------------------
B|-----------------------------------------------------------
G|-----------------------------------------------------------
D|--------------------------------------6--6--6--6--8--8--8--
A|--5--------3--4--3--5--------3--4--3--4--4--4--4--6--6--6--
E|-----3--6--------------3--6--------------------------------



E|--------------------------------------------------------------
B|--------------------------------------------------------------
G|--------------------------------------------------------------
D|--10--10--10-----------------------------------4--4-----------
A|--8---8---8---6--8--6--6--9--4--6--6--6--6--4--------7-----5--
E|--------------------------------------------------------7-----
http://www.guitartabcreator.com
Guitar Tab Creator is intended to store guitar tab created through the tool. It currently does not support in-line text editing. Any text you place in here will be lost. If you need to comment on your tab, please use the "Tab Notes" section located below.