and i love her

(/) Slide Up  (\) Slide Down  (h) Hammer On  (p) Pull Off  (b) Bend (r) Release (v) Vibrato


E|----------------------------------------------------------------------------
B|----------------------------------------------------------------------------
G|-----------9--7--10-----------9--9--7-----------9--7--10--10--7-------------
D|--5--7--8------------5--7--8-----------5--7--8-------------------8--7--3/5--
A|----------------------------------------------------------------------------
E|----------------------------------------------------------------------------



E|-------------------------------------------------------------------------------
B|-------------------------------------------------------------------------------
G|-------------------------------------------------------------------------------
D|-----------7-------------------------------------------------------------------
A|--5--3--5-----3-------------------8--7--5-----8--7--5-----8--7--5-----8--7--9--
E|-----------------5--3--1--1/3--8-----------8-----------8-----------8-----------
http://www.guitartabcreator.com
Guitar Tab Creator is intended to store guitar tab created through the tool. It currently does not support in-line text editing. Any text you place in here will be lost. If you need to comment on your tab, please use the "Tab Notes" section located below.