the house - Dexter song

(/) Slide Up  (\) Slide Down  (h) Hammer On  (p) Pull Off  (b) Bend (r) Release (v) Vibrato


E|-----------------9--------------12-----------------9-----------------------------7--------------
B|--------------9-----10--------------------------9-------------12--------------7-----------7-----
G|-----------9------------11-------------------9-----------------------------7--------------------
D|--------9-------------------11------------9---------------11------------7--------------9--------
A|-----9---------------------------------9--------------11-------------7--------------9-----------
E|--9---------------------------------9-----------------------------7-----------------------------



E|-----------------5--------
B|--------------5--------7--
G|-----------5--------6-----
D|--------5-----------------
A|-----5--------------------
E|--5-----------------------
http://www.guitartabcreator.com
Guitar Tab Creator is intended to store guitar tab created through the tool. It currently does not support in-line text editing. Any text you place in here will be lost. If you need to comment on your tab, please use the "Tab Notes" section located below.