Goblins

(/) Slide Up  (\) Slide Down  (h) Hammer On  (p) Pull Off  (b) Bend (r) Release (v) Vibrato
E|---------------------------------
B|--7/9--7--9----------------------
G|--6-8--6--9----------------------
D|--7-9--7--9--9--11--9--11--------
A|---------------------------11----
E|---------------------------------



E|--9---7--------3--4--5--
B|--10--7--5--6--3--4--5--
G|--11--8--5--6--4--5--6--
D|--11--9--5--6--5--6--7--
A|--9---9--3--4--5--6--7--
E|------7--------3--4--5--



E|-------------------------------
B|-------------------10--12--10--
G|--9--9--11--9--12--------------
D|-------------------------------
A|-------------------------------
E|-------------------------------



E|-----------------------------------------------
B|-----------------------------------------------
G|-----------------------------------------------
D|-----------------5-----------7-----------9--7--
A|--0--0--0--5--7-----0--5--7-----0--5--7--------
E|-----------------------------------------------
http://www.guitartabcreator.com
Guitar Tab Creator is intended to store guitar tab created through the tool. It currently does not support in-line text editing. Any text you place in here will be lost. If you need to comment on your tab, please use the "Tab Notes" section located below.