Carol of the Bells - version August Burns Red

(/) Slide Up  (\) Slide Down  (h) Hammer On  (p) Pull Off  (b) Bend (r) Release (v) Vibrato
E|--------------|--------------|--------------|--------------|--
B|--------------|--------------|--------------|--------------|--
G|--------------|--------------|--------------|--------------|--
D|--------------|--------------|--------------|--------------|--
A|--6--5--6-----|--6--5--6-----|--6--5--6-----|--6--5--6-----|--
E|-----------8--|-----------8--|-----------8--|-----------8--|--



E|--------------|--------------|--------------|--------------
B|--------------|--------------|--------------|--------------
G|--------------|--------------|--------------|--------------
D|--5-----5-----|--5-----5-----|--5-----5-----|--5-----5-----
A|-----8-----6--|-----8-----6--|-----8-----6--|-----8-----6--
E|--------------|--------------|--------------|--------------



E|------------------|---------------|---------------|------------|--
B|------------------|---------------|---------------|------------|--
G|--8--8--7--8------|--8--7--8------|--8--7--8------|--7--8------|--
D|--------------10--|-----------10--|-----------10--|--------10--|--
A|------------------|---------------|---------------|------------|--
E|------------------|---------------|---------------|------------|--



E|---------------|---------------|---------------|---------------|--
B|--8------8-----|--8------8-----|--8------8-----|--8------8-----|--
G|-----10-----8--|-----10-----8--|-----10-----8--|-----10-----8--|--
D|---------------|---------------|---------------|---------------|--
A|---------------|---------------|---------------|---------------|--
E|---------------|---------------|---------------|---------------|--



E|--8--8---------|---------------|----------------|--------------|--
B|--------11--9--|--8--8---------|----------8--9--|--------------|--
G|---------------|--------10--8--|--10--10--------|--------------|--
D|---------------|---------------|----------------|--11--11------|--
A|---------------|---------------|----------------|--------------|--
E|---------------|---------------|----------------|--------------|--



E|------------------------|---------------|------------------------|---------------|-----
B|------------------------|---------------|------------------------|---------------|-----
G|------------------------|--7--8--7------|------------------------|--7--8--7------|-----
D|----------9--9--10--10--|-----------10--|----------9--9--10--10--|-----------10--|-----
A|--10--10----------------|---------------|--10--10----------------|---------------|-----
E|------------------------|---------------|------------------------|---------------|-----



E|--
B|--
G|--
D|--
A|--
E|--
http://www.guitartabcreator.com
Guitar Tab Creator is intended to store guitar tab created through the tool. It currently does not support in-line text editing. Any text you place in here will be lost. If you need to comment on your tab, please use the "Tab Notes" section located below.