The song about split-personality

(/) Slide Up  (\) Slide Down  (h) Hammer On  (p) Pull Off  (b) Bend (r) Release (v) Vibrato
E|-----------------------------------------------------------------------------------------------
B|--------10-----9--------10--------12--------10-------------------------------------------------
G|--9--9------9-----9--9------9--9------9--9------9--9----------9------11----------9-------------
D|------------------------------------------------------11--11-----11------11--11-----11--11-----
A|-----------------------------------------------------------------------------------------------
E|-----------------------------------------------------------------------------------------------



E|-------------------------
B|-------------------------
G|--11----------9----------
D|------11--11-----11--11--
A|-------------------------
E|-------------------------



E|--------------------------------------------------
B|--------------------------------------------------
G|--------6-----------6-----------6--------6--9--6--
D|--9--9-----9--8--8-----8--7--7-----7--6-----------
A|--------------------------------------------------
E|--------------------------------------------------



E|--------12-----11-----9-------------12------11------9--------------12------11------9-------------
B|--9--9------9------9-----9--10--10------10------10-----10--11--11------11------11-----11--12-----
G|-------------------------------------------------------------------------------------------------
D|-------------------------------------------------------------------------------------------------
A|-------------------------------------------------------------------------------------------------
E|-------------------------------------------------------------------------------------------------



E|------12------11------9------
B|--12------12------12-----12--
G|-----------------------------
D|-----------------------------
A|-----------------------------
E|-----------------------------



E|--------12-----11-----9-------------12------11------9--------------11------12----------12---------
B|--9--9------9------9-----9--10--10------10------10-----11--12--12------12------12--12------12-----
G|--------------------------------------------------------------------------------------------------
D|--------------------------------------------------------------------------------------------------
A|--------------------------------------------------------------------------------------------------
E|--------------------------------------------------------------------------------------------------



E|------14------14--12--11-------------11------12----------14----------12----------11----------
B|--12------12--------------12--11h12------12------12--12------12--12------12--12------12--12--
G|---------------------------------------------------------------------------------------------
D|---------------------------------------------------------------------------------------------
A|---------------------------------------------------------------------------------------------
E|---------------------------------------------------------------------------------------------
http://www.guitartabcreator.com
Guitar Tab Creator is intended to store guitar tab created through the tool. It currently does not support in-line text editing. Any text you place in here will be lost. If you need to comment on your tab, please use the "Tab Notes" section located below.