Savitri - Rodrigo y Gabriela

(/) Slide Up  (\) Slide Down  (h) Hammer On  (p) Pull Off  (b) Bend (r) Release (v) Vibrato
E|----------------------------------|------------------------------------
B|-----------8--7h8p7--------10--8--|-----------8--7h8p7-----------------
G|--9-----9------------8------------|--9-----9------------8-----------8--
D|-----9------------------9---------|-----9------------------9--7--9-----
A|----------------------------------|------------------------------------
E|----------------------------------|------------------------------------



E|----------------------------------|--7---------------------------
B|-----------8--7h8p7--------10--8--|--------10-----8--7-----------
G|--9-----9------------8------------|-----9------7--------8-----8--
D|-----9------------------9---------|------------------------9-----
A|----------------------------------|------------------------------
E|----------------------------------|------------------------------



E|----------------------------------|------------------------------------
B|-----------8--7h8p7--------10--8--|-----------8--7h8p7-----------------
G|--9-----9------------8------------|--9-----9------------8-----------8--
D|-----9------------------9---------|-----9------------------9--7--9-----
A|----------------------------------|------------------------------------
E|----------------------------------|------------------------------------

Riff 1a

E|----------------------------------|-----
B|-----------8--7h8p7--------10--8--|-----
G|--9-----9------------8------------|--9--
D|-----9------------------9---------|-----
A|----------------------------------|-----
E|----------------------------------|-----

Repeat Riff 1 (0:14), but play Riff 1b (below) instead of 1a

Riff 1b

E|--
B|--
G|--
D|--
A|--
E|--
http://www.guitartabcreator.com
Guitar Tab Creator is intended to store guitar tab created through the tool. It currently does not support in-line text editing. Any text you place in here will be lost. If you need to comment on your tab, please use the "Tab Notes" section located below.