What Went Wrong

(/) Slide Up  (\) Slide Down  (h) Hammer On  (p) Pull Off  (b) Bend (r) Release (v) Vibrato

E|----------------------|----------------------|----------------------|--
B|----------------------|----------------------|----------------------|--
G|----------------------|----------------------|----------------------|--
D|-----9--7-------9--7--|-----9--7-------9--7--|-----9--7-------9--7--|--
A|--7----------7--------|--7----------7--------|--7----------7--------|--
E|----------------------|----------------------|----------------------|--



E|----------------------|-----------------------|-----------------------|--
B|----------------------|-----------------------|-----------------------|--
G|----------------------|--------------------7--|--------------------7--|--
D|----------------------|--7----------4------7--|--7----------4------7--|--
A|----------------------|--7----------4------5--|--7----------4------5--|--
E|----------------------|--5----------2---------|--5----------2---------|--



E|-----|-----|-----|-----|----|-----|-----|-----|-----|--
B|-----|-----|-----|-----|----|-----|-----|-----|-----|--
G|-----|-----|--9--|--7--|----|-----|-----|--9--|--7--|--
D|--7--|--4--|--9--|--7--|----|--7--|--4--|--9--|--7--|--
A|--7--|--4--|--7--|--5--|----|--7--|--4--|--7--|--5--|--
E|--5--|--2--|-----|-----|----|--5--|--2--|-----|-----|--



E|----------------------|----------------------|--
B|----------------------|----------------------|--
G|----------------------|----------------------|--
D|-----9--7-------9--7--|-----9--7-------9--7--|--
A|--7----------7--------|--7----------7--------|--
E|----------------------|----------------------|--



E|-----------------------|--
B|-----------------------|--
G|--------------------7--|--
D|--7----------4------7--|--
A|--7----------4------5--|--
E|--5----------2---------|--



E|-----|-----|-----|-----|--|-----|-----|-----|-----|--
B|-----|-----|-----|-----|--|-----|-----|-----|-----|--
G|-----|-----|--9--|--7--|--|-----|-----|--9--|--7--|--
D|--7--|--4--|--9--|--7--|--|--7--|--4--|--9--|--7--|--
A|--7--|--4--|--7--|--5--|--|--7--|--4--|--7--|--5--|--
E|--5--|--2--|-----|-----|--|--5--|--2--|-----|-----|--



E|-----|-----|-----|-----|--|-----|-----|-----|-----|--
B|-----|-----|-----|-----|--|-----|-----|-----|-----|--
G|-----|-----|--6--|--7--|--|-----|-----|--6--|--7--|--
D|--7--|--6--|--6--|--7--|--|--7--|--6--|--6--|--7--|--
A|--7--|--6--|--4--|--5--|--|--7--|--6--|--4--|--5--|--
E|--5--|--4--|-----|-----|--|--5--|--4--|-----|-----|--



E|----------------------|----------------------|--
B|----------------------|----------------------|--
G|----------------------|----------------------|--
D|-----9--7-------9--7--|-----9--7-------9--7--|--
A|--7----------7--------|--7----------7--------|--
E|----------------------|----------------------|--



E|-----------------------|--
B|-----------------------|--
G|--------------------7--|--
D|--7----------4------7--|--
A|--7----------4------5--|--
E|--5----------2---------|--



E|-----|-----|-----|-----|--|-----|-----|-----|-----|--
B|-----|-----|-----|-----|--|-----|-----|-----|-----|--
G|-----|-----|--9--|--7--|--|-----|-----|--9--|--7--|--
D|--7--|--4--|--9--|--7--|--|--7--|--4--|--9--|--7--|--
A|--7--|--4--|--7--|--5--|--|--7--|--4--|--7--|--5--|--
E|--5--|--2--|-----|-----|--|--5--|--2--|-----|-----|--



E|-----|-----|-----|-----|--|-----|-----|-----|-----|--
B|-----|-----|-----|-----|--|-----|-----|-----|-----|--
G|-----|-----|--6--|--7--|--|-----|-----|--6--|--7--|--
D|--7--|--6--|--6--|--7--|--|--7--|--6--|--6--|--7--|--
A|--7--|--6--|--4--|--5--|--|--7--|--6--|--4--|--5--|--
E|--5--|--4--|-----|-----|--|--5--|--4--|-----|-----|--



E|--------------------------|--------------------------|--------------------------|-----------------
B|--------------------------|--------------------------|--------------------------|-----------------
G|--------9-----------7-----|--------9-----------7-----|--------9-----------7-----|--------9--------
D|-----7-----7-----7-----7--|-----7-----7-----7-----7--|-----7-----7-----7-----7--|-----7-----7-----
A|--0-----------0-----------|--0-----------0-----------|--7-----------7-----------|--0--------------
E|--------------------------|--------------------------|--------------------------|-----------------



E|--------------------------|--------------------------|-----|--
B|--------------------------|--------------------------|-----|--
G|--------9-----------6-----|--------6--------6--------|--6--|--
D|-----7-----7-----7-----7--|-----7--------7--------7--|--7--|--
A|--------------------------|--5--------5--------5-----|--5--|--
E|--7-----------7-----------|--------------------------|-----|--



E|-----|-----|-----|--
B|-----|-----|-----|--
G|-----|-----|--7--|--
D|--7--|--4--|--7--|--
A|--7--|--4--|--5--|--
E|--5--|--2--|-----|--



E|----------------------|----------------------|--
B|----------------------|----------------------|--
G|----------------------|----------------------|--
D|-----9--7-------9--7--|-----9--7-------9--7--|--
A|--7----------7--------|--7----------7--------|--
E|----------------------|----------------------|--



E|---------------------|-------------------------|--
B|---------------------|-------------------------|--
G|------------------7--|----------------------7--|--
D|--7----------4----7--|--7------------4------7--|--
A|--7----------4----5--|--7------------4------5--|--
E|--5----------2-------|--5------------2---------|--



E|-----|--
B|-----|--
G|-----|--
D|--7--|--
A|--7--|--
E|--5--|--
http://www.guitartabcreator.com
Guitar Tab Creator is intended to store guitar tab created through the tool. It currently does not support in-line text editing. Any text you place in here will be lost. If you need to comment on your tab, please use the "Tab Notes" section located below.