Avenged Sevenfold Victim (Solo 2)

(/) Slide Up  (\) Slide Down  (h) Hammer On  (p) Pull Off  (b) Bend (r) Release (v) Vibrato

E|--10b11--11r10--11----------------11----------------------------------------------------------------
B|--------------------11--8--11b13------11p8--11b13r11------------------------------------------------
G|------------------------------------------------------10b12r10b12--8------8--10p8--10b12--8------8--
D|----------------------------------------------------------------------10---------------------10-----
A|----------------------------------------------------------------------------------------------------
E|----------------------------------------------------------------------------------------------------



E|---------------------------18--------------------
B|---------11---------18b20------20r18--18p16------
G|--10/15------13/20---------------------------15--
D|-------------------------------------------------
A|-------------------------------------------------
E|-------------------------------------------------



E|--15p11------15------11------------------------------------
B|---------15------15------15p11--15\11--8--11p8------11-----
G|------------------------------------------------10------8--
D|-----------------------------------------------------------
A|-----------------------------------------------------------
E|-----------------------------------------------------------



E|-----------------------------------------------------------------------------------------------
B|--8--------------------------------------------------------------------------------------------
G|-----8--7h8p7-----------------------8--7--8p7--8\10--------15---------17---------19b20r19--17--
D|---------------8-----------------8-------------------8/12------12/13------13/15----------------
A|------------------8p6--8/10--10----------------------------------------------------------------
E|-----------------------------------------------------------------------------------------------



E|----------15--18b20--15----------------------15--18b20--18p16p15--16b18--16--16--18--11--13--15--16--15--
B|------16-----------------16--------------16--------------------------------------------------------------
G|--17-------------------------15--17--17------------------------------------------------------------------
D|---------------------------------------------------------------------------------------------------------
A|---------------------------------------------------------------------------------------------------------
E|---------------------------------------------------------------------------------------------------------
http://www.guitartabcreator.com
Guitar Tab Creator is intended to store guitar tab created through the tool. It currently does not support in-line text editing. Any text you place in here will be lost. If you need to comment on your tab, please use the "Tab Notes" section located below.