Mattrach Christmas Rock

(/) Slide Up  (\) Slide Down  (h) Hammer On  (p) Pull Off  (b) Bend (r) Release (v) Vibrato


E|----------------------|--------------------|---------------------------------------|-----
B|--2/12--12h14p12------|--12--12h14p12------|--19--19--16--14--16--16b17b17b16--12--|-----
G|------------------13--|----------------13--|---------------------------------------|-----
D|----------------------|--------------------|---------------------------------------|-----
A|----------------------|--------------------|---------------------------------------|-----
E|----------------------|--------------------|---------------------------------------|-----



E|-------------11--12--11h12p11------|--------------------|--|-------------16--16b17--16------B|--12/14--14--------------------2---|--12h14--12---------|--|--17h19--19-----------------19--
G|-----------------------------------|------------11/13---|--|--------------------------------
D|-----------------------------------|--------------------|--|--------------------------------
A|-----------------------------------|--------------------|--|--------------------------------
E|-----------------------------------|--------------------|--|--------------------------------



E|---------------------|----------------------------------|--
B|--17--19--17--19b21--|--16h17--16--12-------------------|--
G|---------------------|-----------------11/13------------|--
D|---------------------|------------------------14/15\14--|--
A|---------------------|----------------------------------|--
E|---------------------|----------------------------------|--
http://www.guitartabcreator.com
Guitar Tab Creator is intended to store guitar tab created through the tool. It currently does not support in-line text editing. Any text you place in here will be lost. If you need to comment on your tab, please use the "Tab Notes" section located below.