Holiday Song Official (Lead Guitar)

(/) Slide (. under the note) is palm mute

This song is at a pretty fast tempo but nothing to extreme. If your confused at all just text me. If you want I can record on my ipod the song so you can get the feel of how the song goes, just text me and ill do it.

For this tab to go well I have to change some chords in the interlude and bridge, so the real chord is just there, the chord you see in the tabs is in ().

There will also be () around any note that is over ten to let you know that its all one note.

TO CLARIFY: The first one you should play one guitar, the second one though, is the same chord, but put differently to make it easier to tab.

E|------(7)--------(4)------------
B|-(12)--x----------x---------(7)-
G|--x---(4)--(13)--(1)-(11)----x--
D|--9---------x---------x-----(4)-
A|-----------(11)-------9---------
D|--------------------------------

INTERLUDE
E|------------7-777777--4-444444------------------------------------------------------
B|------------x-xxxxxx--x-xxxxxx--7-7777/9/7------------7-7777-9-7--------------------
G|--9-999999--4-444444--1-111111--x-xxxx-x-x--9-999999--x-xxxx-x-x--9-999999--8-888899
D|--x-xxxxxx----------------------4-4444/6/4--x-xxxxxx--4-4444/6/4--x-xxxxxx--x-xxxxxx x2
A|--7-777777----------------------------------7-777777--------------7-777777--6-666677
D|------------------------------------------------------------------------------------

VERSE
E|-----------------------------------------------------------------------------------------------
B|-----------------------------------------------------------------------------------------------
G|-------------------4-4---------------------4-4---------------------4-4------------------------- x2
D|----------------1/2-2-2-----------------1/2-2-2-----------------1/2-2-2------------------------
A|--2-222-222-2--2----------2-222-222-2--2----------9-999-999-9--9----------6-666666-4-4444/6/4-2
D|--2-222-222-2--2----------2-222-222-2--2----------9-999-999-9--9----------6-666666-4-4444/6/4-2
. ... ... . . . ... ... . . . ... ... . .
PRE-CHORUS (Play at a light pace, nothing to fast,just at a steady tempo)
E|-------------------------------------------------------------------
B|---5-5-5-5-5-5-5-5-9-9-9-9-7-7-7-7-5-5-5-5-5-5-5-5-9-9-9-9-7-7-7-7-
G|--4-4-4-4-4-4-4-4-8-8-8-8-6-6-6-6-4-4-4-4-4-4-4-4-8-8-8-8-6-6-6-6--
D|-------------------------------------------------------------------
A|-------------------------------------------------------------------
D|-------------------------------------------------------------------

CHORUS(After the 1 time through play the part after x2 from were the dot is if confused text me)
E|------------------------------------------------------------------------d------
B|------------------------------------------------------------------------o------
G|------------------------------------------------------------------------t------x2
D|-------------------------------------------------------------------------------
A|--22222222-99999999-66666666-44444/6/4/2-22222222-99999999-44444444444444/6/4/2---44444---
D|--22222222-99999999-66666666-44444/6/4/2-22222222-99999999-44444444444444/6/4/2---44444112

INTERLUDE
E|------------7-777777--4-444444------------------------------------------------------
B|------------x-xxxxxx--x-xxxxxx--7-7777/9/7------------7-7777-9-7--------------------
G|--9-999999--4-444444--1-111111--x-xxxx-x-x--9-999999--x-xxxx-x-x--9-999999--8-888899
D|--x-xxxxxx----------------------4-4444/6/4--x-xxxxxx--4-4444/6/4--x-xxxxxx--x-xxxxxx x1
A|--7-777777----------------------------------7-777777--------------7-777777--6-666677
D|------------------------------------------------------------------------------------

VERSE
E|-----------------------------------------------------------------------------------------------
B|-----------------------------------------------------------------------------------------------
G|-------------------4-4---------------------4-4---------------------4-4------------------------- x2
D|----------------1/2-2-2-----------------1/2-2-2-----------------1/2-2-2------------------------
A|--2-222-222-2--2----------2-222-222-2--2----------9-999-999-9--9----------6-666666-4-4444/6/4-2
D|--2-222-222-2--2----------2-222-222-2--2----------9-999-999-9--9----------6-666666-4-4444/6/4-2
. ... ... . . . ... ... . . . ... ... . .
PRE-CHORUS (Play at a light pace, nothing to fast,just at a steady tempo)
E|-------------------------------------------------------------------
B|---5-5-5-5-5-5-5-5-9-9-9-9-7-7-7-7-5-5-5-5-5-5-5-5-9-9-9-9-7-7-7-7-
G|--4-4-4-4-4-4-4-4-8-8-8-8-6-6-6-6-4-4-4-4-4-4-4-4-8-8-8-8-6-6-6-6--
D|-------------------------------------------------------------------
A|-------------------------------------------------------------------
D|-------------------------------------------------------------------

CHORUS(After the 1 time through play the part after x2 from were the dot is if confused text me)
E|------------------------------------------------------------------------d------
B|------------------------------------------------------------------------o------
G|------------------------------------------------------------------------t------x2
D|-------------------------------------------------------------------------------
A|--22222222-99999999-66666666-44444/6/4/2-22222222-99999999-44444444444444/6/4/2---44444---
D|--22222222-99999999-66666666-44444/6/4/2-22222222-99999999-44444444444444/6/4/2---44444112

2nd INTERLUDE (Play at a really steady melodic tempo)
E|--7-5-4-2-4-2-5-4-2-0-2-0-7-5-4-2-4-2-5-4-2-0-2-0-
B|--5-5-5-4-5-4-5-5-4-2-4-5-5-5-5-4-5-4-5-5-4-2-4-5-
G|--------------------------------------------------
D|--------------------------------------------------
A|--------------------------------------------------
D|--------------------------------------------------

PRE-BRIDGE
E|----------7-7-7-7---------------------------------------------------------
B|--5-5-5-5--7-7-7-7-9-9-9-9-7-7-7-7-5-5-5-5-7-7-7/9/7/5-4-4-4-4-5-5-4/55/4-
G|---4-4-4-4----------8-8-8-8-6-6-6-6-4-4-4-4-6-66/8/6/4--4-4-4-4-4-4-------
D|--------------------------------------------------------------------------
A|--------------------------------------------------------------------------
D|--------------------------------------------------------------------------

BRIDGE RIFF 1 (At a steady melodic tempo)
E|----------7777777744444444-------------------------------------------------
B|----------xxxxxxxxxxxxxxxx777777/9/7/5--------777777/9/7/5-----------------
G|--999999994444444411111111xxxxxx-x-x-x99999999xxxxxx-x-x-x999999998888/99/8
D|--xxxxxxxx----------------444444/6/4/2xxxxxxxx444444/6/4/2xxxxxxxxxxxx-xx-x x2
A|--77777777----------------------------77777777------------777777776666/77/6
D|---------------------------------------------------------------------------

BRIDGE RIFF 2 (Played at a fast tempo)
E|--7-0-5-0-4-0-5-0-4-0-2-0-4-0-2-0-7-0-5-0-4-0-5-0-4-0-2-0-4-0-2-0-
B|--9---7---5---7---5---4---5---4---9---7---5---7---5---4---5---4---
G|------------------------------------------------------------------
D|------------------------------------------------------------------
A|------------------------------------------------------------------
D|------------------------------------------------------------------

BRIDGE RIFF 2 CONTINUED
E|--9-0-7-0-5-0-7-0-5-0-4-0-5-0-4-0-7-0-5-0-4-0-5-0-4-0-2-0-2/4/2-0-
B|--10--9---7---9---7---5---7---5---9---7---5---7---5---4---4/5/4---
G|------------------------------------------------------------------
D|------------------------------------------------------------------
A|------------------------------------------------------------------
D|------------------------------------------------------------------

BRIDGE RIFF 3
E|--------------------------------------------------
B|--------------------------------------------------
G|--------------------------------------------------
D|--------------------------------------------------
A|--2--222222-2-2222222112--2--222222-2--2222222112-
D|--2--222222-2-2222222112--2--222222-2--2222222112-
. ...... . ....... . ...... . .......
PRE-CHOURS (Yes it is different than the other pre-chorus)
E|----------7-7-7-7---------------------------------------------------------
B|--5-5-5-5--7-7-7-7-9-9-9-9-7-7-7-7-5-5-5-5-7-7-7/9/7/5-4-4-4-4-5-5-4/55/4-
G|---4-4-4-4----------8-8-8-8-6-6-6-6-4-4-4-4-6-66/8/6/4--4-4-4-4-4-4-------
D|--------------------------------------------------------------------------
A|--------------------------------------------------------------------------
D|--------------------------------------------------------------------------

CHORUS
E|------------------------------------------------------------------------d------
B|------------------------------------------------------------------------o------
G|------------------------------------------------------------------------t------x2
D|-------------------------------------------------------------------------------
A|--22222222-99999999-66666666-44444/6/4/2-22222222-99999999-44444444444444/6/4/2---44444---
D|--22222222-99999999-66666666-44444/6/4/2-22222222-99999999-44444444444444/6/4/2---44444112

OUTRO RIFF 1 (Played at a fast tempo)
E|--7-0-5-0-4-0-5-0-4-0-2-0-4-0-2-0-7-0-5-0-4-0-5-0-4-0-2-0-4-0-2-0-
B|--9---7---5---7---5---4---5---4---9---7---5---7---5---4---5---4---
G|------------------------------------------------------------------
D|------------------------------------------------------------------
A|------------------------------------------------------------------
D|------------------------------------------------------------------

OUTRO RIFF 1 CONTINUED
E|--9-0-7-0-5-0-7-0-5-0-4-0-5-0-4-0-7-0-5-0-4-0-5-0-4-0-2-0-2/4/2-0-
B|--10--9---7---9---7---5---7---5---9---7---5---7---5---4---4/5/4---
G|------------------------------------------------------------------
D|------------------------------------------------------------------
A|------------------------------------------------------------------
D|------------------------------------------------------------------

OUTRO RIFF 2
E|----------------------------
B|--------------------------5~
G|--------------------------4~
D|--------------------------2~
A|--2--222222-2-2222222112--2~
D|--2--222222-2-2222222112----
. ...... . .......
http://www.guitartabcreator.com
Guitar Tab Creator is intended to store guitar tab created through the tool. It currently does not support in-line text editing. Any text you place in here will be lost. If you need to comment on your tab, please use the "Tab Notes" section located below.