Holiday Song

(/) Slide Up  (\) Slide Down  (h) Hammer On  (p) Pull Off  (b) Bend (r) Release (v) Vibrato


D|------------7-77-777--5-55-555-------------------------------------------------
A|--5-55-555--x-xx-xxx--x-xx-xxx--9-999977--5-55-555-7-77777-9-7-5-55-555-4-44455
F|--x-xx-xxx--4-44-444--2-22-222--x-xxxxxx--x-xx-xxx-x-xxxxx-x-x-x-xx-xxx-x-xxxxx
C|--2-22-222----------------------6-666644--2-22-222-4-44444/6/4-2-22-222-1-11122
G|-------------------------------------------------------------------------------
C|-------------------------------------------------------------------------------



D|------------------------------------------------------------------------------
A|------------------------------------------------------------------------------
F|------------------------------------------------------------------------------
C|------------------------------------------------------------------------------
G|--2-2222222--9-999999-6-666666-4-4444/6/4-2-222222-4-4444/6/4-2-222222-222-222
C|--2-2222222--9-999999-6-666666-4-4444/6/4-2-222222-4-4444/6/4-2-222222-222-222



D|-------------------------------------------------------------------------------------
A|--3-d------------------3-d------------------12-d------------------7-d----------------
F|--2-l--------------4-4-2-l--------------4-4-11-l--------------4-4-6-l------------4-2-
C|--0-o-------------2-2--0-o-------------2-2--9--o-------------2-2--4-o-----------2---6
G|--0-h------------6-----0-h------------6-----9--h------------6-----4-h----------6-----
C|-------------------------------------------------------------------------------------



D|-------------------------------------------------------------------------------------
A|-------------------------------------------------------------------------------------
F|-------------------4-4-------------------4-4------------------4-4--------------------
C|------------------2-2------------------2-2-------------------2-2---------------------
G|--2-222-22222--2-6-----2-222-22222--2-6------9-999-99999--9-6------------------------
C|--2-222-22222--2-------2-222-22222--2--------9-999-99999--9-------4-44-444-2-22-2/4/2



D|--9-9-9-9-7-7-7-7-6-6-6-6-4-4-4-4--9-9-9-9-7-7-7-7-6-6-6-6-4-4-4-4---
A|---7-7-7-7-7-7-7-7-7-7-7-7-6-6-6-6--7-7-7-7-7-7-7-7-7-7-7-7-6-6-6-6--
F|---------------------------------------------------------------------
C|---------------------------------------------------------------------
G|---------------------------------------------------------------------
C|---------------------------------------------------------------------



D|--------------------------------------------------------------------------
A|--------------------------------------------------------------------------
F|--------------------------------------------------------------------------
C|--------------------------------------------------------------------------
G|--2-22-222-9-99-999-4-44-444-6-666644-2-22-222-9-99-999-4-44-444-6-6666112
C|--2-22-222-9-99-999-4-44-444-6-666644-2-22-222-9-99-999-4-44-444-6-6666112



D|----------7-7-7-7-------------------------------------------------
A|--5-5-5-5-x-x-x-x-9-9-9-9-7-7-7-7-5-5-5-5-4-4-4-4-x-x-x-x-9-9-9-9-
F|--x-x-x-x-4-4-4-4-x-x-x-x-x-x-x-x-x-x-x-x-x-x-x-x-4-4-4-4-x-x-x-x-
C|--2-2-2-2---------6-6-6-6-4-4-4-4-2-2-2-2-1-1-1-1---------6-6-6-6-
G|------------------------------------------------------------------
C|------------------------------------------------------------------



D|------------------------------------------------------------------
A|------------------------------------------------------------------
F|------------------------------------------------------------------
C|------------------------------------------------------------------
G|--2-2-2-2-9-9-9-9-6-6-6-6-4-4-4-4-2-2-2-2-1-1-1-1-1/2-2-2-2/1-1-1-
C|--2-2-2-2-9-9-9-9-6-6-6-6-4-4-4-4-2-2-2-2-1-1-1-1-1/2-2-2-2/1-1-1-



D|--7-0-5-0-4-0-5-0-4-0-2-0-4-0-2-0-7-0-5-0-4-0-5-0-4-0-2-0-4-0-2-0-
A|--9---7---5---7---5---4---5---4---9---7---5---7---5---4---5---4---
F|------------------------------------------------------------------
C|------------------------------------------------------------------
G|------------------------------------------------------------------
C|------------------------------------------------------------------



D|--9-0-7-0-5-0-7-0-5-0-4-0-5-0-4-0-7-0-5-0-4-0-5-0-4-0-2-0-2/4/2-0-
A|--10--9---7---9---7---5---7---5---9---7---5---7---5---4---4/5/4---
F|------------------------------------------------------------------
C|------------------------------------------------------------------
G|------------------------------------------------------------------
C|------------------------------------------------------------------



E|--
B|--
G|--
D|--
A|--
E|--



E|--
B|--
G|--
D|--
A|--
E|--



E|--
B|--
G|--
D|--
A|--
E|--



E|--
B|--
G|--
D|--
A|--
E|--



E|--
B|--
G|--
D|--
A|--
E|--



E|--
B|--
G|--
D|--
A|--
E|--



E|--
B|--
G|--
D|--
A|--
E|--



E|--
B|--
G|--
D|--
A|--
E|--



E|--
B|--
G|--
D|--
A|--
E|--



E|--
B|--
G|--
D|--
A|--
E|--



E|--
B|--
G|--
D|--
A|--
E|--



E|--
B|--
G|--
D|--
A|--
E|--



E|--
B|--
G|--
D|--
A|--
E|--



E|--
B|--
G|--
D|--
A|--
E|--



E|--
B|--
G|--
D|--
A|--
E|--



E|--
B|--
G|--
D|--
A|--
E|--



E|--
B|--
G|--
D|--
A|--
E|--



E|--
B|--
G|--
D|--
A|--
E|--
http://www.guitartabcreator.com
Guitar Tab Creator is intended to store guitar tab created through the tool. It currently does not support in-line text editing. Any text you place in here will be lost. If you need to comment on your tab, please use the "Tab Notes" section located below.