Train Station Pre-Chorus

(/) Slide Up  (\) Slide Down  (h) Hammer On  (p) Pull Off  (b) Bend (r) Release (v) Vibrato

E|------------------------------------------------------------
B|------------------------------------------------------------
G|------------------------------------------------------------
D|-----9------5-----2-----0---------------------------0h2-----
A|-----10-----2-----3-----2-----x-----0h2-----2h3-------3-----
E|-----x------0-----x-----x-----3-----------------------------



E|------------------
B|------------------
G|------------------
D|--9---5--2--0-----
A|--10--2--3--2--x--
E|--x---0--x--x--3--
http://www.guitartabcreator.com
Guitar Tab Creator is intended to store guitar tab created through the tool. It currently does not support in-line text editing. Any text you place in here will be lost. If you need to comment on your tab, please use the "Tab Notes" section located below.