Tars in Haven

(/) Slide Up  (\) Slide Down  (h) Hammer On  (p) Pull Off  (b) Bend (r) Release (v) Vibrato
E|-----------------------------------|-----------------------|-----------------------|-----------------
B|-------------2h3p2-----5-----5--2--|-----2-----2-----2-----|--3-----3-----3-----3--|--2-----2-----2--
G|----------2---------2--4-----4--2--|-----2-----2-----2-----|--2-----2-----2-----1--|--2-----2-----2--
D|-----------------------------------|-----------------------|-----------------------|-----------------
A|-------0---------------------------|-----------------------|-----------------------|--0--0-----0--0--
E|--0h2------------------4--4-----2--|--2-----2--0--0-----0--|--2--2-----2--0--0--0--|-----------------



E|-------------|------------------------|-----------------------|--------------------------|--
B|-----2-------|--------2h3p2-----5--2--|-----2-----2-----2-----|--3-----3-----2-----2-----|--
G|-----2-------|-----2---------2--4--2--|-----2-----2-----2-----|--2-----2-----2-----2-----|--
D|-------------|------------------------|-----------------------|--------------------------|--
A|--0--0-------|--0---------------------|-----------------------|--------------------------|--
E|--------0h2--|------------------4--2--|--2-----2--0--0-----0--|--2--2--2--2--0--0-----0--|--



E|--------------------------|---------------------------|-----------------------|-----
B|--0-----0-----2-----3-----|--2-----2h3p2-----5-----2--|-----2-----2-----2-----|-----
G|--1-----1-----2-----4-----|-----2---------2--4-----2--|-----2-----2-----2-----|-----
D|--------------------------|---------------------------|-----------------------|-----
A|--------------------------|--0------------------------|-----------------------|-----
E|-----0-----0-----0-----0--|------------------4--4--2--|--2-----2-----0-----0--|-----



E|--------------------------|--------------------------|--------------------------|--
B|--3-----3-----2-----2-----|--0-----0-----2-----3-----|--2-----2-----2-----2-----|--
G|--2-----2-----2-----2-----|--1-----1-----2-----4-----|--2-----2-----2-----2-----|--
D|--------------------------|--------------------------|--------------------------|--
A|--------------------------|--------------------------|--------------------------|--
E|--2--2-----2--0--0-----0--|-----0-----0-----0-----0--|--2--2-----2-----2-----0--|--



E|--------------------------|--------------------------|------------------|--
B|--2-----2-----2-----2-----|--2-----2-----2-----2-----|--3--------3------|--
G|--1-----1-----1-----1-----|--0-----0-----0-----0-----|--2--------2------|--
D|--------------------------|--------------------------|------------------|--
A|--------------------------|--------------------------|------------------|--
E|--1--1-----1-----1-----1--|-----0-----0-----0-----0--|--2--------2------|--



E|--------------------------|--------------------|---------------------------------|--
B|--3-----3-----3-----3-----|--3-------3---------|--------2h3p2--2-----5-----5--2--|--
G|--2-----2-----2-----2-----|--2-------2---------|-----2------------2--4-----4--2--|--
D|--------------------------|--------------------|---------------------------------|--
A|--2--2-----2--2--2-----0--|--------------------|--0------------------------------|--
E|--------------------------|-------0-------0h2--|---------------------4--4-----2--|--



E|-----------------------|-----------------------|----------------------------|--
B|-----2-----2-----2-----|--3-----3-----3-----3--|--2-----2-----2-----2-------|--
G|-----2-----2-----2-----|--2-----2-----2-----1--|--2-----2-----2-----2-------|--
D|-----------------------|-----------------------|----------------------------|--
A|-----------------------|-----------------------|--0--0-----0--0--0----------|--
E|--2-----2--0--0-----0--|--2--2-----2--0--0--0--|-----------------------0h2--|--



E|--------------------------|-----------------------|--------------------------|--
B|--------2h3p2-----5----2--|-----2-----2-----2-----|--3-----3-----2-----2-----|--
G|-----2---------2--4----2--|-----2-----2-----2-----|--2-----2-----2-----2-----|--
D|--------------------------|-----------------------|--------------------------|--
A|--0-----------------------|-----------------------|--------------------------|--
E|------------------4----2--|--2-----2--0--0-----0--|--2--2-----2--0--0-----0--|--



E|--------------------------|-----------------------------|-----------------------|--
B|--0-----0-----2-----3-----|--2-----2h3p2-----5-------2--|-----2-----2-----2-----|--
G|--1-----1-----2-----4-----|-----2---------2--4-------2--|-----2-----2-----2-----|--
D|--------------------------|-----------------------------|-----------------------|--
A|--------------------------|--2--------------------------|-----------------------|--
E|-----0-----0-----0-----0--|------------------4----4--2--|--2-----2-----0-----0--|--



E|--------------------------|--------------------------|--------------------------|--
B|--3-----3-----2-----2-----|--0-----0-----2-----3-----|--2-----2-----2-----2-----|--
G|--2-----2-----2-----2-----|--1-----1-----2-----4-----|--2-----2-----2-----2-----|--
D|--------------------------|--------------------------|--------------------------|--
A|--------------------------|--------------------------|--------------------------|--
E|--2--2-----2--0--0-----0--|-----0-----0-----0-----0--|--2--2-----2-----2-----0--|--



E|--------------------------|--------------------------|--------------|--
B|--2-----2-----2-----2-----|--2-----2-----2-----2-----|--------------|--
G|--1-----1-----1-----1-----|--0-----0-----0-----0-----|--3----3------|--
D|--------------------------|--------------------------|--2----2------|--
A|--------------------------|--------------------------|--------------|--
E|--1--1-----1-----1-----1--|-----0-----0-----0-----0--|--2----2------|--



E|----------------------------|--------------------|--------------|------------------------------|--
B|--3------3------3------3----|--3-------3---------|--5-----5--2--|--------2h3p2-----5-----5--2--|--
G|--2------2------2------2----|--2-------2---------|--4-----4--2--|-----2---------2--4-----4--2--|--
D|----------------------------|--------------------|--------------|------------------------------|--
A|--2---2-----2---2---2-----0-|--------------------|--------------|--0---------------------------|--
E|----------------------------|-------0-------0h2--|--4--4-----2--|------------------4--4-----2--|--



E|-----------------------|-----------------------|----------------------------|--
B|-----2-----2-----2-----|--3-----3-----3-----3--|--2-----2-----2-----2-------|--
G|-----2-----2-----2-----|--2-----2-----2-----1--|--2-----2-----2-----2-------|--
D|-----------------------|-----------------------|----------------------------|--
A|-----------------------|-----------------------|--0--0-----0--0--0-----0h2--|--
E|--2-----2--0--0-----0--|--2--2-----2--0--0-----|----------------------------|--



E|--------------------|----------------------|----------------------------|--
B|--------1-----------|-----1----3-----3-----|--3-------3-----3-----3-----|--
G|-----0--------0-----|-----2----2-----2-----|--0-------0-----2-----2-----|--
D|--------------------|--2-------------------|----------------------------|--
A|--3--------2-----0--|----------------------|----------------------------|--
E|--------------------|----------2--2-----2--|--3----3-----3--2--2-----2--|--



E|-----------------------|-------------------|-------------------|----------------------|--
B|--3-----3-----3-----3--|-----------3-------|-------3-----3-----|-----1----3-----3-----|--
G|--0-----0-----2-----0--|-----0-----0-------|-------2-----2-----|-----2----2-----2-----|--
D|-----------------------|-------------------|--2----------------|--2-------------------|--
A|-----------------------|--3-----2-------0--|-------------------|----------------------|--
E|--0--0-----0--2--2--3--|-------------------|-------2--2-----2--|----------2--2-----2--|--



E|-----------------------|----------------------|----------------------|--
B|--3-----3-----3-----3--|--------1-----3-------|-----1----3-----3-----|--
G|--0-----0-----2-----0--|-----0--------0-------|-----2----2-----2-----|--
D|-----------------------|----------------------|--2-------------------|--
A|-----------------------|--3--------2-------0--|----------------------|--
E|--0--0-----0--2--2--3--|----------------------|----------2--2-----2--|--



E|--------------------------|-------------------------|---------------------|-----
B|--3-----3-----3-----3-----|-------0-----2-----3-----|--2-----2----5----2--|-----
G|--0-----0-----2-----2-----|-------1-----2-----4-----|-----2-------4----2--|-----
D|--------------------------|-------------------------|---------------------|-----
A|--------------------------|-------------------------|--0------------------|-----
E|--3--3-----3--2--2-----2--|--0-------0-----0-----0--|-------------4----2--|-----



E|-----------------------|-----------0---------------------|--------------------------|--
B|-----2-----2-----2-----|--3-----3-----2-----2h3p2--2-----|--0-----0-----2-----3-----|--
G|-----2-----2-----2-----|--2-----2-----2---------------2--|--1-----1-----2-----4-----|--
D|-----------------------|---------------------------------|--------------------------|--
A|-----------------------|---------------------------------|--------------------------|--
E|--2-----2--0--0-----0--|--2--2--------0--0---------------|-----0-----0-----0-----0--|--



E|------------------|--------------------------|--------------------------|--
B|------------------|--2-----2-----2-----2-----|--2-----2-----2-----2-----|--
G|------------------|--2-----2-----2-----2-----|--1-----1-----1-----1-----|--
D|------------------|--------------------------|--------------------------|--
A|------------------|-----------------------2--|--------------------------|--
E|------------------|--2--2-----2-----2--------|--1--1-----1-----1-----1--|--



E|-----------------------|------------------------------------|-------------------|--
B|--2-----2-----2--2-----|------------3-----3-----3-----3-----|--3-------3--------|--
G|--0-----0-----0--0-----|--3----3----2-----2-----2-----2-----|--2-------2--------|--
D|-----------------------|--2----2----------------------------|-------------------|--
A|-----------------------|------------2--2-----2--2--2--------|-------------------|--
E|--0--0-----0--------0--|--2----2-------------------------0--|-------0-----0--2--|--



E|------------------------------|--------------------------|-----------------------|--
B|--------2h3p2-----5-----5--2--|--------2-----2-----2-----|--3-----3-----3-----3--|--
G|-----2---------2--4-----4--2--|--------2-----2-----2-----|--2-----2-----2-----1--|--
D|------------------------------|--------------------------|-----------------------|--
A|--0---------------------------|--------------------------|-----------------------|--
E|------------------4--4-----2--|-----2-----2--0--0-----0--|--2--2--2--2--0--0-----|--



E|--------------------------|----------------|-----------------------|--
B|--2-----2-----2-----2-----|----------5--2--|-----2-----2-----2-----|--
G|--2-----2-----2-----2-----|-----2----4--2--|-----2-----2-----2-----|--
D|--------------------------|----------------|-----------------------|--
A|--0--0-----0-----0-----0--|--0-------------|-----------------------|--
E|--------------------------|----------4--2--|--2-----2-----0-----0--|--



E|--------------------------|--------------------------|-----------------------------|--
B|--3-----3-----2-----2-----|--0-----0-----2-----3-----|--------2h3p2-----5-------2--|--
G|--2-----2-----2-----2-----|--1-----1-----2-----4-----|-----2---------2--4-------2--|--
D|--------------------------|--------------------------|-----------------------------|--
A|--------------------------|--------------------------|--0--------------------------|--
E|-----2-----2--0--0-----0--|-----0-----0-----0-----0--|------------------4----4--2--|--



E|-----------------------|-----------------------|--------------------------|--
B|-----2-----2-----2-----|-----3-----2-----2-----|--0-----0-----2-----3-----|--
G|-----2-----2-----2-----|-----2-----2-----2-----|--1-----1-----2-----4-----|--
D|-----------------------|-----------------------|--------------------------|--
A|-----------------------|-----------------------|--------------------------|--
E|--2-----2-----0-----0--|--2-----2-----0-----0--|-----0-----0-----0-----0--|--



E|------------------------------|-----------------------|-----------------------|--
B|--------2h3p2-----5-----5--2--|-----2-----2-----2-----|--3-----3-----3-----3--|--
G|-----2---------2--4-----4--2--|-----2-----2-----2-----|--2-----2-----2-----1--|--
D|------------------------------|-----------------------|-----------------------|--
A|--0---------------------------|-----------------------|-----------------------|--
E|------------------4--4-----2--|--2-----2--0--0-----0--|--2--2-----2--0--0-----|--



E|-------------------------|------------------------|----------------------|--
B|--2-----2-----2--2-------|--------1---------------|-----1----3-----3-----|--
G|--2-----2-----2--2-------|-----0----------0-------|-----2----2-----2-----|--
D|-------------------------|------------------------|--2-------------------|--
A|--0--0-----0--0-----0h2--|--3----------2-------0--|----------------------|--
E|-------------------------|------------------------|----------2--2-----2--|--



E|--------------------------|-----------------------|------------------|--
B|--3-----3-----3-----3-----|--3-----3-----3-----3--|--------1---------|--
G|--0-----0-----2-----2-----|--0-----0-----2-----0--|-----0------------|--
D|--------------------------|-----------------------|------------------|--
A|--------------------------|-----------------------|--3----------2----|--
E|--3--3-----3--2--2-----2--|--0--0-----0--2--2--3--|------------------|--



E|------------------------|----------------------|--------------------------|--
B|--------1-------3-------|-----1----3-----3-----|--3-----3-----3-----3-----|--
G|-----0----------0-------|-----2----2-----2-----|--0-----0-----2-----2-----|--
D|------------------------|--2-------------------|--------------------------|--
A|--3----------2-------0--|----------------------|--------------------------|--
E|------------------------|----------2--2-----2--|--3--3-----3--2--2-----2--|--



E|-------------------------|---------------------|--
B|-------0-----2-----3-----|--2-----2----5----2--|--
G|-------1-----2-----4-----|-----2-------4----2--|--
D|-------------------------|---------------------|--
A|-------------------------|--0------------------|--
E|--0-------0-----0-----0--|-------------4----2--|--
http://www.guitartabcreator.com
Guitar Tab Creator is intended to store guitar tab created through the tool. It currently does not support in-line text editing. Any text you place in here will be lost. If you need to comment on your tab, please use the "Tab Notes" section located below.