linkin park - in the end

(/) Slide Up  (\) Slide Down  (h) Hammer On  (p) Pull Off  (b) Bend (r) Release (v) Vibrato
E|-----------------------------
B|-----------------------------
G|-----4--4--------------------
D|--2--------5--4--4--4--4--5--
A|-----------------------------
E|-----------------------------



E|-----------------12--
B|-----7--------7------
G|--5-----9--5---------
D|---------------------
A|---------------------
E|---------------------



E|--------------
B|--------------
G|-----------5--
D|--2--5--0--5--
A|--2--5--0--3--
E|--2--5--0--0--
http://www.guitartabcreator.com
Guitar Tab Creator is intended to store guitar tab created through the tool. It currently does not support in-line text editing. Any text you place in here will be lost. If you need to comment on your tab, please use the "Tab Notes" section located below.