no. 1

(/) Slide Up  (\) Slide Down  (h) Hammer On  (p) Pull Off  (b) Bend (r) Release (v) Vibrato


E|-2-2-2-3--2-2-2-2----2-2-2-2-3-2-2-2-2----------------2-2-2-2-----2-2-2-3--2-2-2-2---
B|------------------3--------------------3---0-0-0-0-3----------3--------------------3-
G|-------------------------------------------------------------------------------------
D|-------------------------------------------------------------------------------------
A|-------------------------------------------------------------------------------------
E|-------------------------------------------------------------------------------------



E|-2-2-2-3------------2-3-
B|----------3-3-0-0-3-----
G|------------------------
D|------------------------
A|------------------------
E|------------------------



E|-2-2-2-2-3-3-3-3--2-2-2-2----------2-2-2-2-3-3-3-3--2-2-2-2---------
B|--------------------------3-3-3-3---------------------------3-3-3-3-
G|--------------------------------------------------------------------
D|--------------------------------------------------------------------
A|--------------------------------------------------------------------
E|--------------------------------------------------------------------



E|--------------------2-2-2-2----------2-2-2-2-3-3-3-3--2-2-2-2---------
B|-0-0-0-0-0-3-3-3-3----------3-3-3-3---------------------------3-3-3-3-
G|----------------------------------------------------------------------
D|----------------------------------------------------------------------
A|----------------------------------------------------------------------
E|----------------------------------------------------------------------
http://www.guitartabcreator.com
Guitar Tab Creator is intended to store guitar tab created through the tool. It currently does not support in-line text editing. Any text you place in here will be lost. If you need to comment on your tab, please use the "Tab Notes" section located below.