blues

(/) Slide Up  (\) Slide Down  (h) Hammer On  (p) Pull Off  (b) Bend (r) Release (v) Vibrato


E|---------------------------------------------------------------------------------------------
B|---------------------------------------------------------------------------------------------
G|--------4--6b6--------6--8b8---------8--10b10----------10--12b12----------10----------10-----
D|--4--6----------6--8----------8--10------------10--12-------------10--12------10--12---------
A|---------------------------------------------------------------------------------------------
E|---------------------------------------------------------------------------------------------



E|---------------------------------------------------------------------------------------------
B|---------------------------------------------------------------------------------------------
G|---------------------------------------------------------------------------------------------
D|----------10----------10--12h12----------10----------10----------10--12h12-------------------
A|--10--12------10--12-------------10--12------10--12------10--12------------------------------
E|----------------------------------------------------------------------------12--10--15\0-----



E|-----------------------
B|-----------------------
G|-----------------------
D|-----------------1\15--
A|-----------3--1--------
E|--0--1--2--------------
http://www.guitartabcreator.com
Guitar Tab Creator is intended to store guitar tab created through the tool. It currently does not support in-line text editing. Any text you place in here will be lost. If you need to comment on your tab, please use the "Tab Notes" section located below.