new intro section for after clean bit

(/) Slide Up  (\) Slide Down  (h) Hammer On  (p) Pull Off  (b) Bend (r) Release (v) Vibrato
E|-------------------------------------------------------------------------------------
B|-------------------------------------------------------------------------------------
G|-------------------------------------------------------------------------------------
D|-------------------------------------------------------------------------------------
A|---------------------------------------------3h5h7-------------------3h5h7-----------
E|-0-0-0-0-0-0--0-0-0-0-0-0--0-0-0-0-0-0-3h5h7-------0-0-0-0-0-0-3h5h7-------0-0-0-0-0-



E|-----------------------------------------------------------------------------
B|-----------------------------------------------------------------------------
G|-----------------------------------------------------------------------------
D|---------2h4h5-------------------2h4h5-------------------5h7h9---------------
A|---2h3h5-------------------2h3h5-------------------5h7h9-------------------5h
E|-0-------------0-0-0-0-0-0-------------0-0-0-0-0-0-------------0-0-0-0-0-0---



E|-----------------------------------------------------------------------------
B|-----------------------------------------------------------------------------
G|-----------------------------------------------------------------------------
D|-----5h7h9-------------------------------------------------------------------
A|-7h9-------------------------3h5h7-------------------3h5h7-------------2h3h5-
E|-----------0-0-0-0-0-0-3h5h7-------0-0-0-0-0-0-3h5h7-------3-3-3-3-3-3-------



E|-----------------------------------------------------------------------------
B|-----------------------------------------------------------------------------
G|-----------------------------------------------------------------------------
D|-2h4h5-------------------2h4h5-------------------5h7h9-------------------5h7-
A|-------------------2h3h5-------2-2-2-2-2-2-5h7h9-------2-2-2-2-2-2-5h7h9-----
E|-------3-3-3-3-3-3-----------------------------------------------------------



E|-------------------------------------------------------------------------------------------
B|-------------------------------------------------------------------------------------------
G|-------------------------------------------------------------------------------------------
D|--9----------------------7--5--3-----------5--4--2-----------------------------------7-----
A|-----10--9--7---------------------7--5--3-----------5--3--2--7--5--3--------------5--------
E|---------------10--8--7-----------------------------------------------7--5--3--3-----------



E|----------------------------------------
B|----------------------------------------
G|----------------------------------------
D|--5--------------9--7---------------11--
A|-----7--------7--------9---------9------
E|--------9--5--------------10--7---------
http://www.guitartabcreator.com
Guitar Tab Creator is intended to store guitar tab created through the tool. It currently does not support in-line text editing. Any text you place in here will be lost. If you need to comment on your tab, please use the "Tab Notes" section located below.