more neo shit

(/) Slide Up  (\) Slide Down  (h) Hammer On  (p) Pull Off  (b) Bend (r) Release (v) Vibrato

E|---------------------------------------------------
B|---------------------------------------------------
G|---------------------------------------------------
D|---------------------------------------------------
A|---------------------------------------------------
E|-0-0-0-0-0--0-0-0-0-0--0-0-0-0-0-0-3-3-3-3-2-2-2-2-



E|-------------------------------
B|-------------------------------
G|-------------------------------
D|-------------------------------
A|-2-2-2-2-5-0-0-7-0-0-5-0-4/5-4-
E|-0-0-0-0-3-0-0-5-0-0-3-0-2-3-2-



E|--------------------------------------------------------
B|--------------------------------------------------------
G|--------------------------------------------------------
D|--------------------------------------------------------
A|-2-2-2-2---------2-2-2-2-------2-2-2-2------2-2-2-2-2-2-
E|-0-0-0-0-12v-v-v-0-0-0-0-14v-v-0-0-0-0-5v-v-0-0-0-0-0-0-



E|----------------------------
B|----------------------------
G|--9p7p5---------------------
D|---------9p7p5--------------
A|----------------9p7p5/6--7--
E|----------------------------
http://www.guitartabcreator.com
Guitar Tab Creator is intended to store guitar tab created through the tool. It currently does not support in-line text editing. Any text you place in here will be lost. If you need to comment on your tab, please use the "Tab Notes" section located below.