heavy ass shit

(/) Slide Up  (\) Slide Down  (h) Hammer On  (p) Pull Off  (b) Bend (r) Release (v) Vibrato


E|-------------------------------------------------
B|-------------------------------------------------
G|-------------------------------------------------
D|--------------7/9---------------------------5----
A|--2--2--2--2--5-------8\7-----5-----5/6-----3\2--
E|--0--0--0--0-------0--6----0--3--0--3----0-------



E|------------------------------------------
B|------------------------------------------
G|------------------------------------------
D|------------------------------------------
A|-----5-----5/6-----6-------2--2--2--2-----
E|--0--3--0--3----0--4\3--0--0--0--0--0--3--
http://www.guitartabcreator.com
Guitar Tab Creator is intended to store guitar tab created through the tool. It currently does not support in-line text editing. Any text you place in here will be lost. If you need to comment on your tab, please use the "Tab Notes" section located below.