chorus finale after arpeggios

(/) Slide Up  (\) Slide Down  (h) Hammer On  (p) Pull Off  (b) Bend (r) Release (v) Vibrato

Stave 1:

E|--------------------------------------------------------------------------------------------------
B|--------------------------------------------------------------------------------------------------
G|--------------------------------------2--4--5--4--9--8--5-----------------------------------------
D|-----------------------------2--4--5-----------------------9--7--5--9--7--5-----------------------
A|-----------2--3--6--2--3--6--------------------------------------------------9--7--6--------------
E|--2--3--5-----------------------------------------------------------------------------8--7--5--7--

Stave 2:

E|---------------------------------------------------------------------------------------------
B|---------------------------------------------------------------------------------------------
G|----------------------------------------------9--11--12--11--16--14--12----------------------
D|-----------------------------------9--10--13-----------------------------16--14--13--16--14--
A|-------------9--10--12--9--10--12------------------------------------------------------------
E|--8--11--12----------------------------------------------------------------------------------

Stave 3:

E|----------------------------------
B|----------------------------------
G|----------------------------------
D|--13------------------------------
A|------15--14--12------------------
E|------------------15--14--11--12--

http://www.guitartabcreator.com
Guitar Tab Creator is intended to store guitar tab created through the tool. It currently does not support in-line text editing. Any text you place in here will be lost. If you need to comment on your tab, please use the "Tab Notes" section located below.