black is the day

(/) Slide Up  (\) Slide Down  (h) Hammer On  (p) Pull Off  (b) Bend (r) Release (v) Vibrato


E|---------------------------
B|---------------------------
G|---------------------------
D|-----9---------9-----7-----
A|--------10--9-----7-----9--
E|--7------------------------



E|----------------------------------
B|----------------------------------
G|----------------------------------
D|------12----------12------10------
A|----------13--12------10------12--
E|--10------------------------------



E|----------------------------------
B|----------------------------------
G|----------------------------------
D|------16----------16------14------
A|----------17--16------14------16--
E|--14------------------------------
http://www.guitartabcreator.com
Guitar Tab Creator is intended to store guitar tab created through the tool. It currently does not support in-line text editing. Any text you place in here will be lost. If you need to comment on your tab, please use the "Tab Notes" section located below.