February Stars

(/) Slide Up  (\) Slide Down  (h) Hammer On  (p) Pull Off  (b) Bend (r) Release (v) Vibrato

E|----------------------|----------------------------------------------|--
B|----------------------|----------------------------------------------|--
G|--9b11r9--7--9--9b11--|--9b11r9--7-----7h9------------7-----9p7------|--
D|----------------------|-------------9-------7h9--7h9-----9-------9v--|--
A|----------------------|----------------------------------------------|--
E|----------------------|----------------------------------------------|--



E|------------------------------|--10---------------------------|--
B|------------------------------|------10-----------------------|--
G|-------7--9b10r9--7-----7h9v--|----------9b10r9--7-----9--7v--|--
D|--7h9----------------9--------|---------------------9---------|--
A|------------------------------|-------------------------------|--
E|------------------------------|-------------------------------|--
http://www.guitartabcreator.com
Guitar Tab Creator is intended to store guitar tab created through the tool. It currently does not support in-line text editing. Any text you place in here will be lost. If you need to comment on your tab, please use the "Tab Notes" section located below.