Give me some sunshine

(/) Slide Up  (\) Slide Down  (h) Hammer On  (p) Pull Off  (b) Bend (r) Release (v) Vibrato


E|---------------------------------------------------
B|---------------------------------------------------
G|---------------5-----5--9--7--5-----5-----------5--
D|----------5h7-----7--------------7-----7--5--7-----
A|-----5h7-------------------------------------------
E|--8------------------------------------------------



E|-------------8------10------8--8/13--13--13--15------------------
B|-------8h10-----10------10-----------------------15--13------13--
G|--7h9----------------------------------------------------14------
D|-----------------------------------------------------------------
A|-----------------------------------------------------------------
E|-----------------------------------------------------------------



E|---------15h17--15--15--12h13----12h13--15--15--12h13--
B|--15h17------------------------------------------------
G|-------------------------------------------------------
D|-------------------------------------------------------
A|-------------------------------------------------------
E|-------------------------------------------------------



E|---------------------------------------------
B|--12----17--17----13h15----------------------
G|-------------------------12h14---------------
D|--------------------------------12h14----12--
A|---------------------------------------------
E|---------------------------------------------



E|------------------------12----10/12----10/8--
B|------------------13-------------------------
G|---------12h14-------------------------------
D|--12h14--------------------------------------
A|---------------------------------------------
E|---------------------------------------------
http://www.guitartabcreator.com
Guitar Tab Creator is intended to store guitar tab created through the tool. It currently does not support in-line text editing. Any text you place in here will be lost. If you need to comment on your tab, please use the "Tab Notes" section located below.