mama

(/) Slide Up  (\) Slide Down  (h) Hammer On  (p) Pull Off  (b) Bend (r) Release (v) Vibrato

E|--------------------------
B|--------------------------
G|--------------------------
D|-----3--6---------13------
A|-----------7--12------14--
E|--2-----------------------



E|---------------------
B|---------------------
G|-----12------16------
D|--6------------------
A|---------13------17--
E|---------------------



E|----------------------
B|----------------------
G|--------------10--16--
D|-----4--2-------------
A|--8--------2----------
E|----------------------
http://www.guitartabcreator.com
Guitar Tab Creator is intended to store guitar tab created through the tool. It currently does not support in-line text editing. Any text you place in here will be lost. If you need to comment on your tab, please use the "Tab Notes" section located below.