gorilla

[code]
(/) Slide Up (\) Slide Down (h) Hammer On (p) Pull Off (b) Bend (r) Release (v) Vibrato


E|-----------------------------------------------------------------
B|-----------------------------------------------------------------
G|-----------------------6-------6-----------------------6-------6-
D|-----------------4-4-4---4-4-4-------------------4-4-4---4-4-4---
A|-------2-------2-----------------------2-------2-----------------
E|-0-0-0---0-0-0-------------------0-0-0---0-0-0-------------------



E|-----------------------------------------------------------------
B|-----------------------------------------------------------------
G|-----------------------6-------6-----------------------6-------6-
D|-----------------4-5-4---4-5-4-------------------4-5-4---4-5-4---
A|-------2-------2-----------------------2-------2-----------------
E|-0-3-0---0-3-0-------------------0-3-0---0-3-0-------------------



E|---------------------------------------
B|---------------------------------------
G|---------------------------------------
D|---------------------------------------
A|-12-11-10-----------12-11-10-----------
E|----------9-0-0-0-0----------9-0-0-----
[/code]
[url]http://www.guitartabcreator.com[/url]
Guitar Tab Creator is intended to store guitar tab created through the tool. It currently does not support in-line text editing. Any text you place in here will be lost. If you need to comment on your tab, please use the "Tab Notes" section located below.