C

(/) Slide Up  (\) Slide Down  (h) Hammer On  (p) Pull Off  (b) Bend (r) Release (v) Vibrato
E|-------------------------------5-7-8-4-6-7---------------------------------------------------
B|-------------------------5-7-8-------------4-6-7---------------------------------------------
G|-------------------5-7-8-------------------------4-6-7---------------------------------------
D|-------------5-7-8-------------------------------------4-6-7-------------------------3-5-6---
A|-------5-7-8-------------------------------------------------4-6-7-------------3-5-6---------
E|-5-7-8-------------------------------------------------------------4-6-7-3-5-6---------------



E|-------------3-5-6-2-4-5-------------------------------------------------------------1-3-4---
B|-------3-5-6-------------2-4-5-------------------------------------------------1-3-4---------
G|-3-5-6-------------------------2-4-5-------------------------------------1-3-4---------------
D|-------------------------------------2-4-5-------------------------1-3-4---------------------
A|-------------------------------------------2-4-5-------------1-3-4---------------------------
E|-------------------------------------------------2-4-5-1-3-4---------------------------------



E|--0--2--3-----------------------------------------------
B|-----------0--2--3--------------------------------------
G|--------------------0--2--3-----------------------------
D|-----------------------------0--2--3--------------------
A|--------------------------------------0--2--3-----------
E|-----------------------------------------------0--2--3--
http://www.guitartabcreator.com
Guitar Tab Creator is intended to store guitar tab created through the tool. It currently does not support in-line text editing. Any text you place in here will be lost. If you need to comment on your tab, please use the "Tab Notes" section located below.