Ćwiczenie 2. Rookie Blues - dziennik nauki gry na gitarze.

(/) Slide Up  (\) Slide Down  (h) Hammer On  (p) Pull Off  (b) Bend (r) Release (v) Vibrato

E|-----------------------------------------------5--6--8--4--5--7-----------------------------
B|--------------------------------------5--6--8--------------------4--5--7--------------------
G|-----------------------------5--6--8--------------------------------------4--5--7-----------
D|--------------------5--6--8--------------------------------------------------------4--5--7--
A|-----------5--6--8--------------------------------------------------------------------------
E|--5--6--8-----------------------------------------------------------------------------------



E|-----------------------------------------------------------------3--4--6--2--3--5-----------
B|--------------------------------------------------------3--4--6--------------------2--3--5--
G|-----------------------------------------------3--4--6--------------------------------------
D|--------------------------------------3--4--6-----------------------------------------------
A|--4--6--7--------------------3--4--6--------------------------------------------------------
E|-----------4--6--7--3--4--6-----------------------------------------------------------------



E|-----------------------------------------------------------------------------------1--2--4--
B|--------------------------------------------------------------------------1--2--4-----------
G|--2--3--5--------------------------------------------------------1--2--4--------------------
D|-----------2--3--5--------------------------------------1--2--4-----------------------------
A|--------------------2--3--5--------------------1--2--4--------------------------------------
E|-----------------------------2--3--5--1--2--4-----------------------------------------------



E|--0--1--3-----------------------------------------------
B|-----------0--1--3--------------------------------------
G|--------------------0--1--3-----------------------------
D|-----------------------------0--1--3--------------------
A|--------------------------------------0--1--3-----------
E|-----------------------------------------------0--1--3--
http://www.guitartabcreator.com
Guitar Tab Creator is intended to store guitar tab created through the tool. It currently does not support in-line text editing. Any text you place in here will be lost. If you need to comment on your tab, please use the "Tab Notes" section located below.