wipeout

(/) Slide Up  (\) Slide Down  (h) Hammer On  (p) Pull Off  (b) Bend (r) Release (v) Vibrato


E|--------------------------------------------------------------------------------------------
B|--0--3--4--5--5--3--0--0--3--4--5--5--3--0--0--3--4--5--5--3--0--0--3--4--5--5--3--0--0-----
G|--------------------------------------------------------------------------------------------
D|--------------------------------------------------------------------------------------------
A|--------------------------------------------------------------------------------------------
E|--------------------------------------------------------------------------------------------



E|--3--4--5--5--3--0--0--3--4--5--5--3--0--0--------------------------------------------
B|--------------------------------------------3--4--5--5--3--0--0--3--4--5--5--3--0--0--
G|--------------------------------------------------------------------------------------
D|--------------------------------------------------------------------------------------
A|--------------------------------------------------------------------------------------
E|--------------------------------------------------------------------------------------



E|--5--6--7--7--5--0--0--3--4--5--5--3--0--0-----------------------------------------
B|--------------------------------------------3--4--5--5--3--0--0--3--0--3--0--3--0--
G|-----------------------------------------------------------------------------------
D|-----------------------------------------------------------------------------------
A|-----------------------------------------------------------------------------------
E|-----------------------------------------------------------------------------------
http://www.guitartabcreator.com
Guitar Tab Creator is intended to store guitar tab created through the tool. It currently does not support in-line text editing. Any text you place in here will be lost. If you need to comment on your tab, please use the "Tab Notes" section located below.