Arpeggios

(/) Slide Up  (\) Slide Down  (h) Hammer On  (p) Pull Off  (b) Bend (r) Release (v) Vibrato

E|---------8-12-8------------------10-13-10----------------7-10-7---------------8-12-8---------------5-8-
B|------10--------10------------12----------12-----------9--------9----------10--------10----------6-----
G|----9--------------9-------10----------------10------7------------7------9--------------9------5-------
D|-10------------------10-12----------------------12-9----------------9-10------------------10-7---------
A|-------------------------------------------------------------------------------------------------------
E|-------------------------------------------------------------------------------------------------------



E|--8--5-----------------7--10--7-----------------4--7--4-----------------5--7--5--7--5--4--7--5--
B|--------6-----------9------------9-----------5-----------5-----------5--------------------------
G|-----------5-----7------------------7-----4-----------------4-----5-----------------------------
D|--------------9------------------------6-----------------------7--------------------------------
A|------------------------------------------------------------------------------------------------
E|------------------------------------------------------------------------------------------------
http://www.guitartabcreator.com
Guitar Tab Creator is intended to store guitar tab created through the tool. It currently does not support in-line text editing. Any text you place in here will be lost. If you need to comment on your tab, please use the "Tab Notes" section located below.