folk song

(/) Slide Up  (\) Slide Down  (h) Hammer On  (p) Pull Off  (b) Bend (r) Release (v) Vibrato


E|--------------------------------
B|--------------------------------
G|--------------------------------
D|--------------------------------
A|-----3--5--6--5--3-----3--5--3--
E|--3-----------------3-----------



E|--------------------------------
B|--------------------------------
G|--------------------------------
D|--------------------------------
A|-----3--5--6--5--3-----3--5--3--
E|--3-----------------3-----------



E|--------------------------------
B|--1--1-----1--1-----1--1-----1--
G|--2--2-----2--2-----2--2-----2--
D|--2--2-----2--2-----2--2-----3--
A|-----------------------------3--
E|--------0--------0--------0-----



E|--1--1-----1--1-----1--1--------
B|--3--3-----3--3-----3--3-----2--
G|--2--2-----2--2-----2--2-----2--
D|-----------------------------2--
A|--------------------------------
E|--------0--------0--------0-----



E|-----------------------------------
B|-----------------------------------
G|-----------------------------------
D|-----------------------------------
A|-----3--5--6--5--3-----3--5--3-----
E|--3-----------------3--------------



E|--------------------------------
B|--------------------------------
G|--------------------------------
D|--------------------------------
A|-----5--7--8--7--5-----5--7--5--
E|--5-----------------5-----------



E|-----------------------------------
B|-----------------------------------
G|-----------------------------------
D|-----------------------------------
A|-----3--3--5--6--5--3-----3--5--3--
E|--3--------------------3-----------
http://www.guitartabcreator.com
Guitar Tab Creator is intended to store guitar tab created through the tool. It currently does not support in-line text editing. Any text you place in here will be lost. If you need to comment on your tab, please use the "Tab Notes" section located below.