Ocean

(/) Slide Up  (\) Slide Down  (h) Hammer On  (p) Pull Off  (b) Bend (r) Release (v) Vibrato


E|--0--0--4--4--5--7--7--5--5--4--------------------------------
B|--------------------------------7--7--7--7--7--5--5--7--5--9--
G|--------------------------------------------------------------
D|--------------------------------------------------------------
A|--------------------------------------------------------------
E|--------------------------------------------------------------



E|--0--0--4--4--5--7--7--5--5--4-----------------------
B|--------------------------------5\8--7h8\10--8--7h8--
G|-----------------------------------------------------
D|-----------------------------------------------------
A|-----------------------------------------------------
E|-----------------------------------------------------



E|--0--0--4--4--5--7--7--5--5--4--8--8--7--7--5--7--
B|--------------------------------------------------
G|--------------------------------------------------
D|--------------------------------------------------
A|--------------------------------------------------
E|--------------------------------------------------



E|--7--5--4--4--4h5-----------------0--
B|-------------------5\8--10--8--7-----
G|-------------------------------------
D|-------------------------------------
A|-------------------------------------
E|-------------------------------------
http://www.guitartabcreator.com
Guitar Tab Creator is intended to store guitar tab created through the tool. It currently does not support in-line text editing. Any text you place in here will be lost. If you need to comment on your tab, please use the "Tab Notes" section located below.