keapora geabora

(/) Slide Up  (\) Slide Down  (h) Hammer On  (p) Pull Off  (b) Bend (r) Release (v) Vibrato


E|-----------------------------------------------------------------------
B|-----------------------------------------1-----------------------------
G|------------------------------0-------0-----3--1--0--------------------
D|---------------------0--1--3-------------------------3--1--0-----------
A|--3----2--3----2--3--------------3----------------------------3--2-----
E|--------------------------------------------------------------------3--



E|---------------------------------------------------------------
B|---------------------------------------------------------------
G|------------------------------0--------1--0--------------------
D|---------------------0--1--3--------3--------3--1--0--0--------
A|--3----2--3----2--3--------------3-----------------------3--3--
E|---------------------------------------------------------------



E|-------------------------------------------------------
B|-------------------------4--3--1-----1-----------------
G|--3----0--1--3--0--1--3-----------3-----1--3--1--0--1--
D|-------------------------------------------------------
A|-------------------------------------------------------
E|-------------------------------------------------------



E|-------------------------------------------------------
B|-------------------------3--1--------------------------
G|-------------------------------3--1--1--3--1--0-----0--
D|--3----0--1--3--0--1--3--------------------------3-----
A|-------------------------------------------------------
E|-------------------------------------------------------
http://www.guitartabcreator.com
Guitar Tab Creator is intended to store guitar tab created through the tool. It currently does not support in-line text editing. Any text you place in here will be lost. If you need to comment on your tab, please use the "Tab Notes" section located below.