Song 1

(/) Slide Up  (\) Slide Down  (h) Hammer On  (p) Pull Off  (b) Bend (r) Release (v) Vibrato


E|-----------------------9-----10-----12--
B|----------------------------------------
G|----------------------------------------
D|-----6-----7-----9--0-----0------0------
A|--0-----0-----0-------------------------
E|----------------------------------------



E|-----2-----4-----6--------------------
B|--0-----0-----0-----------------------
G|--------------------------------------
D|--------------------------------------
A|-----------------------2-----4-----6--
E|--------------------0-----0-----0-----



E|--------------------------------------------
B|--------------------------------------------
G|-----------------------2-----4-----6--8--9--
D|-----2-----4-----6--0-----0-----0-----------
A|--0-----0-----0-----------------------------
E|--------------------------------------------



E|---------------------------------------
B|-----6-----8-----10--------------------
G|--0-----0-----0---------4-----5-----7--
D|---------------------0-----0-----0-----
A|---------------------------------------
E|---------------------------------------



E|--------------------------------------
B|--------------------------------------
G|--------------------------------------
D|-----2-----3-----5--------------------
A|--0-----0-----0--------0-----1-----3--
E|--------------------0-----0-----0-----



E|--------------------------------------
B|-----1-----3-----5--------------------
G|--0-----0-----0-----------------------
D|-----------------------4-----5-----7--
A|--------------------0-----0-----0-----
E|--------------------------------------
http://www.guitartabcreator.com
Guitar Tab Creator is intended to store guitar tab created through the tool. It currently does not support in-line text editing. Any text you place in here will be lost. If you need to comment on your tab, please use the "Tab Notes" section located below.