Smells like teen spirit solo

(/) Slide Up  (\) Slide Down  (h) Hammer On  (p) Pull Off  (b) Bend (r) Release (v) Vibrato


E|--------------------------------------------------------------------------------------
B|--------6-----------------------------------------6-----------------------------------
G|--5--8--------8b6/5--6--5-------------------5--8--------8b6/5--6--5-------------------
D|-----------6---------------8--6--8--7b6--5-----------6---------------8--6--8--7b6--5--
A|--------------------------------------------------------------------------------------
E|--------------------------------------------------------------------------------------



E|--------------------------------------------------------------------------------
B|--------------------------------------------------------------------------------
G|--------------------------------------------------------------------------------
D|--6--5--6--5--6--5--6--5/3--6--5--6--5--6--5--6--5/3--6--5--6--5--6--5--6--5/3--
A|--------------------------------------------------------------------------------
E|--------------------------------------------------------------------------------



E|-----------------------------
B|-----------------------------
G|-----------------------------
D|--6--5--6--5--6--5--6--5/3v--
A|-----------------------------
E|-----------------------------
http://www.guitartabcreator.com
Guitar Tab Creator is intended to store guitar tab created through the tool. It currently does not support in-line text editing. Any text you place in here will be lost. If you need to comment on your tab, please use the "Tab Notes" section located below.