Heaven is a Lie

(/) Slide Up  (\) Slide Down  (h) Hammer On  (p) Pull Off  (b) Bend (r) Release (v) Vibrato

E|-----------------------------------------------------------
B|----------------------------------------10--10--10--10-----
G|--11/12--12--11--9----11/12--12--11--9---------------------
D|-----------------------------------------------------------
A|-----------------------------------------------------------
E|-----------------------------------------------------------



E|-----------------------------------
B|-----------------------------------
G|-----------5-----------------------
D|-----2-----5-----7-----5-----4-----
A|-----2-----3-----7-----5-----4-----
E|-----0-----------5-----3-----2-----



E|-----------------------------------------------
B|-----------------------------------------------
G|-----------5-5-5-5-5---------------------------
D|-2-2-2-2-2-5-5-5-5-5-7-7-7-7-7-5-5-5-5-5-4-4-4-
A|-2-2-2-2-2-3-3-3-3-3-7-7-7-7-7-5-5-5-5-5-4-4-4-
E|-0-0-0-0-0-----------5-5-5-5-5-3-3-3-3-3-2-2-2-



E|------------------------------------------------------------------
B|------------------------------------------------------------------
G|------------------------------------------------------------------
D|----------------------------------------------------------7-7-7-7-
A|-9/10-10-9/7--9/10-10-9-7-7-7-7--9/10-10-9/7--9/10-10-9-7---------
E|------------------------------------------------------------------



E|-----------------------------------
B|-----------------------------------
G|-----------5-----------------------
D|-----2-----5-----7-----5-----4-----
A|-----2-----3-----7-----5-----4-----
E|-----0-----------5-----3-----2-----



E|-----------------------------------------------
B|-----------------------------------------------
G|-----------5-5-5-5-5---------------------------
D|-2-2-2-2-2-5-5-5-5-5-7-7-7-7-7-5-5-5-5-5-4-4-4-
A|-2-2-2-2-2-3-3-3-3-3-7-7-7-7-7-5-5-5-5-5-4-4-4-
E|-0-0-0-0-0-----------5-5-5-5-5-3-3-3-3-3-2-2-2-



E|------------------------------------------------------------------
B|------------------------------------------------------------------
G|------------------------------------------------------------------
D|----------------------------------------------------------7-7-7-7-
A|-9/10-10-9\7--9/10-10-9-7-7-7-7--9/10-10-9\7--9/10-10-9-7---------
E|------------------------------------------------------------------



E|-----------------------------------
B|-----------------------------------
G|-----------5-----------------------
D|-----2-----5-----7-----5-----4-----
A|-----2-----3-----7-----5-----4-----
E|-----0-----------5-----3-----2-----



E|------------------------------------------------------------------
B|------------------------------------------------------------------
G|------------------------------------------------------------------
D|----------------------------------------------------------7-7-7-7-
A|-9/10-10-9\7--9/10-10-9-7-7-7-7--9/10-10-9\7--9/10-10-9-7---------
E|------------------------------------------------------------------



E|-
B|-
G|-
D|-
A|-
E|-



E|-----------------------------------
B|-----------------------------------
G|-----------5-----------------------
D|-----2-----5-----7-----5-----4-----
A|-----2-----3-----7-----5-----4-----
E|-----0-----------5-----3-----2-----



E|--------------------------------------------------------
B|----------------------------------------10--10--10--10--
G|--11/12--12--11--9----11/12--12--11--9------------------
D|--------------------------------------------------------
A|--------------------------------------------------------
E|--------------------------------------------------------
http://www.guitartabcreator.com
Guitar Tab Creator is intended to store guitar tab created through the tool. It currently does not support in-line text editing. Any text you place in here will be lost. If you need to comment on your tab, please use the "Tab Notes" section located below.