Stone Temple Pilots - Plush

(/) Slide Up  (\) Slide Down  (h) Hammer On  (p) Pull Off  (b) Bend (r) Release (v) Vibrato

E|--------------------------------
B|--------------------------------
G|--0--0-----------0--0-----------
D|--0--0--3--2--2--0--0--0--0-----
A|--3--3--2--1--1--0--0--1--2-----
E|--3--3--3--3--3--3--3--3--3-----



E|--3--3--x--x--x-----------------------|-----|-----x--x--x--------------x--x--x--|-----|-----x--x--
B|--2--2--x--x--x-----------------------|--3--|--3--x--x--x--3--3--3--3--x--x--x--|--6--|--6--x--x--
G|--------x--x--x--0--0--0--0--x--x--x--|--3--|--3--x--x--x--2--2--2--2--x--x--x--|--5--|--5--x--x--
D|--------x--x--x--2--2--2--2--x--x--x--|--2--|--2--x--x--x--0--0--0--0--x--x--x--|-----|-----x--x--
A|--3--3--x--x--x--3--3--3--3--x--x--x--|-----|-----x--x--x--1--1--1--1--x--x--x--|-----|-----x--x--
E|--3--3--x--x--x--2--2--2--2--x--x--x--|-----|-----x--x--x--0--0--0--0--x--x--x--|-----|-----x--x--



E|--x--|-----|-----|-----|-----x--x--x--
B|--x--|--6--|--6--|--6--|--6--x--x--x--
G|--x--|--5--|--5--|--5--|--5--x--x--x--
D|--x--|-----|-----|-----|-----x--x--x--
A|--x--|-----|-----|-----|-----x--x--x--
E|--x--|-----|-----|-----|-----x--x--x--



E|-----------------
B|--0--0--3--2--3--
G|--0--0--0--0--0--
D|--2--2--0--0--0--
A|--3--3--3--3--3--
E|--0--0--0--0--0--



E|--------x--x--x--------------x--x--x--|-----|-----x--x--x--|-----|-----|-----|-----x--x--x--
B|--6--6--x--x--x--6--6--6--6--x--x--x--|--3--|--3--x--x--x--|--3--|--3--|--3--|--3--x--x--x--
G|--5--5--x--x--x--5--5--5--5--x--x--x--|--3--|--3--x--x--x--|--3--|--3--|--3--|--3--x--x--x--
D|--3--3--x--x--x--3--3--3--3--x--x--x--|--2--|--2--x--x--x--|--2--|--2--|--2--|--2--x--x--x--
A|--3--3--x--x--x--3--3--3--3--x--x--x--|-----|-----x--x--x--|-----|-----|-----|-----x--x--x--
E|--3--3--x--x--x--3--3--3--3--x--x--x--|-----|-----x--x--x--|-----|-----|-----|-----x--x--x--



E|--3--3--x--x--x--1--1--1--1--1--1--x--0--0--0--0--0--3--3--3-----------
B|--5--5--x--x--x--3--3--3--3--3--3--x--3--3--3--3--3--6--6--6--5--5--5--
G|--5--5--x--x--x--3--3--3--3--3--3--x--2--2--2--2--2--5--5--5--7--7--7--
D|--4--4--x--x--x--2--2--2--2--2--2--x--0--0--0--0--0--3--3--3-----------
A|--3--3--x--x--x--1--1--1--1--1--1--x--1--1--1--1--1--3--3--3-----------
E|--3--3--x--x--x--1--1--1--1--1--1--x--0--0--0--0--0--3--3--3-----------
http://www.guitartabcreator.com
Guitar Tab Creator is intended to store guitar tab created through the tool. It currently does not support in-line text editing. Any text you place in here will be lost. If you need to comment on your tab, please use the "Tab Notes" section located below.