Duran Duran - Rio

(/) Slide Up  (\) Slide Down  (h) Hammer On  (p) Pull Off  (b) Bend (r) Release (v) Vibrato

E|-0---0---0---0---0---0---0---0---0---0---0---0---0---0---0---0---0---0---0---0---0---0---0---0---
B|-------------------------------------------------------------------------------------------------
G|-------------------------------------------------------------------------------------------------
D|-------------------------------------------------------------------------------------------------
A|---8---8---8---8---8---8---5---8---8---8---8---8---8---8---5---8---8---8---8---8---8---8---5---8-
E|---7---8---8---8---7---8---5---8---7---8---8---8---7---8---5---8---7---8---8---8---7---8---5---8-



E|-----0-----------------------0-----------------------------
B|-----2-----2-----5-----0-----2-----2-----5-----7-----0-----
G|-----2-----4-----8-----2-----2-----4-----8-----9-----2-----
D|-----1-----4-----8-----2-----1-----4-----8-----9-----2-----
A|-----0-----------------2-----0-----------------------2-----
E|-----0-----------------0-----0-----------------------0-----



E|------------------------------------------------------------------------
B|------------------------------------------------------------------------
G|------------------------------------------------------------------------
D|--1/9--16b16--19--18--16--16b16--14--1/9--16b16--19--18--16--16b16--14--
A|------------------------------------------------------------------------
E|------------------------------------------------------------------------



E|----------------------------------------------------------------------------------------------
B|---------------------------------------------------------------------------------------12-----
G|--------------------------------------------------------------------------------10p12---------
D|--6--9b9-----9b4--6---------------------------------------------------------------------------
A|----------9----------9--12--14b15b14--12b10--10--10h12--9--14b15b15b14--12--14----------------
E|----------------------------------------------------------------------------------------------



E|------------------------------------------------------------
B|------------------------------------------------------------
G|------------------------------------------------------------
D|-----------------------------------6--6--6--9--6--6--9b6p9--
A|--------------14b15b15b14--12--14---------------------------
E|--9--12b9p12------------------------------------------------



E|-----------------------------------------------------------------------------------------
B|-----------------------------------------------------------------------------------------
G|-----------------------------------------------------------------------------------------
D|-----------------------------------------------------------------------------------------
A|--12--12--14--12--12--14--12--12--14--12--12--14--12--12--14--15b12--12--14--12--12--14--
E|-----------------------------------------------------------------------------------------



E|----------------------------------------------
B|----------------------------------6--5--4-----
G|-------------------------6--5--4--------------
D|--6--9b9--9--6--6--5--4-----------------------
A|----------------------------------------------
E|----------------------------------------------



E|-----------------------------------------------------
B|-----------------------------------------------------
G|-----------------------------------------------------
D|-----------------------------------------------------
A|--2--2--5--2--2--9--5--5--14--10--10--14--10--10--15b
E|-----------------------------------------------------



E|-----------------------------------------------------------------------------------
B|-----------------------------------------------------------------------------------
G|-----------------------------------------------------------------------------------
D|-----------------------------------------------------------------------------------
A|---8---8---8---8---8---8---8---8---8---8---8---8---8---8---8---8---8---8---8---8---
E|---7---7---7---7---7---7---7---7---7---7---7---7---7---7---7---7---7---7---7---7---



E|-----0-----------------------0-----------------------------
B|-----2-----2-----5-----0-----2-----2-----5-----7-----0-----
G|-----2-----4-----7-----2-----2-----4-----7-----9-----2-----
D|-----1-----4-----7-----2-----1-----4-----7-----9-----2-----
A|-----0-----------------2-----0-----------------------2-----
E|-----0-----------------0-----0-----------------------0-----



E|------------------------------------------------------------------------
B|------------------------------------------------------------------------
G|------------------------------------------------------------------------
D|--1/9--16b16--19--18--16--16b16--14--1/9--16b16--19--18--16--16b16--14--
A|------------------------------------------------------------------------
E|------------------------------------------------------------------------



E|-----------------------------
B|-----------------------------
G|-----------------------------
D|-----------------------------
A|-----------------------------
E|--14b14--12--9b9--7--7b7--5--



E|--------------------------------------------------------------------------
B|--------------------------------------------------------------------------
G|--------------------------------------------------------------------------
D|--------------------------------------------------------------------------
A|--------------------------------------------------------------------------
E|--14b14b14b14--14b10--12--9--14b10--9--7--10--9--7--10--9--7--14b15b16b16b
http://www.guitartabcreator.com
Guitar Tab Creator is intended to store guitar tab created through the tool. It currently does not support in-line text editing. Any text you place in here will be lost. If you need to comment on your tab, please use the "Tab Notes" section located below.