tab1

(/) Slide Up  (\) Slide Down  (h) Hammer On  (p) Pull Off  (b) Bend (r) Release (v) Vibrato
E|----------------------------------------------------------
B|----------------------------------------------------------
G|----------------------------------------------------------
D|-------------8-7-5-------8--------------------------------
A|---------5-3-------8-------12---------5-3-5-------3-------
E|-0-0-0-0-------------0-8------0-0-0-0-------8-5-0---7-3-2-


E|---------------------------------------------------------------------
B|---------------------------------------------------------------------
G|---------------------------------------------------------------------
D|---------------------------------------------------------------------
A|-5-------3-------5-------7--------5-------3-------5-------7--------10-
E|---8-5-0---7-3-0---8-5-0---10-7-0---8-5-0---7-3-0---7-5-0---10-7-0-8-
http://www.guitartabcreator.com
Guitar Tab Creator is intended to store guitar tab created through the tool. It currently does not support in-line text editing. Any text you place in here will be lost. If you need to comment on your tab, please use the "Tab Notes" section located below.