riff 2

(/) Slide Up  (\) Slide Down  (h) Hammer On  (p) Pull Off  (b) Bend (r) Release (v) Vibrato


E|---------------------------------------------------------------------
B|---------------------------------------------------------------------
G|---------------------------------------------------------------------
D|-----------------------------------------------------10--------------
A|-5-------3---7-8-5-------5-------5-------5---7-8--------12-0-8-10-12-
E|---0-0-0---0-------0-0-0---8-5-0---0-0-0---0-----0-8-----------------



E|------------------------------------|
B|------------------------------------|
G|------------------------------------|
D|-------10---------------------10----|
A|-------------13----12-----8------12-| then repeat
E|-10-10----10----10----8-8---8-------|
http://www.guitartabcreator.com
Guitar Tab Creator is intended to store guitar tab created through the tool. It currently does not support in-line text editing. Any text you place in here will be lost. If you need to comment on your tab, please use the "Tab Notes" section located below.