excercise 1

(/) Slide Up  (\) Slide Down  (h) Hammer On  (p) Pull Off  (b) Bend (r) Release (v) Vibrato


E|-------------------------------5-6-8-12-10-8-------------------------------------------
B|-------------------------5-6-8---------------13-11-10----------------------------------
G|-------------------5-7-9------------------------------12-10-9--------------------------
D|-------------5-7-8--------------------------------------------12-10-8------------------
A|-------5-7-8----------------------------------------------------------13-12-10---------
E|-5-7-8-------------------------------------------------------------------------12-10-8-



E|---------------------------------------10-12-13-15-13-12---------------------------------
B|------------------------------10-11-13-------------------15-13-11------------------------
G|----------------------9-10-12-------------------------------------15-14-12---------------
D|--------------8-10-12------------------------------------------------------15-14-12------
A|-------7-8-10-----------------------------------------------------------------------15---
E|-5-7-8-----------------------------------------------------------------------------------



E|----------------------------------------------------------------------
B|----------------------------------------------------------------------
G|----------------------------------------------------------------------
D|---------5-------8-7-5---5----------------7--------10-8-7----7--------
A|-0-5-7-8---8-7-5-------8---8-7-5-0-7-8-10---10-8-7--------10---10-8-7-
E|----------------------------------------------------------------------
http://www.guitartabcreator.com
Guitar Tab Creator is intended to store guitar tab created through the tool. It currently does not support in-line text editing. Any text you place in here will be lost. If you need to comment on your tab, please use the "Tab Notes" section located below.