RESERVATIONS (Relative to 4th Fret Capo)

(/) Slide Up  (\) Slide Down  (h) Hammer On  (p) Pull Off  (b) Bend (r) Release (v) Vibrato

E|--7--8---3--2----7--8---3--10--
B|--8--10--5--3----8--10--5--10--
G|--7--9---4--2----7--9---4--11--
D|-------------------------------
A|-------------------------------
E|-------------------------------



E|--------------------------2--
B|--------------------1-----3--
G|--------0-----------2--0--2--
D|-----2-----------0--2--2-----
A|--3-----------2--------2-----
E|-----------3-----------0-----



E|---------------------------3--------3------------------------------------------------
B|-------3--------3-----3/5-----5--5-----5----5/8--8--8--8\5--5\3--3r0-----------------
G|--2/4-----4--4-----4--------------------------------------------------2r0--2/4--2r0--
D|-------------------------------------------------------------------------------------
A|-------------------------------------------------------------------------------------
E|-------------------------------------------------------------------------------------



E|--3---------5---------10---------
B|-----6b7-------8b9--------13b14--
G|---------------------------------
D|---------------------------------
A|---------------------------------
E|---------------------------------



E|-----------------------------------------------------------------------------------
B|-----------------------------------------------------------------------------------
G|-----------------------------------------------------------------------------------
D|--------------------5--7--5-----5--------------------------------------------------
A|--5--7--5-----5--7-----------7-----7--7/10--10--10--10\7--7\5--5\2--2r0--2/5--2r0--
E|-----------7-----------------------------------------------------------------------



E|--12--7--8---3--10--
B|--13--8--10--5--10--
G|--12--7--9---4--11--
D|--------------------
A|--------------------
E|--------------------
http://www.guitartabcreator.com
Guitar Tab Creator is intended to store guitar tab created through the tool. It currently does not support in-line text editing. Any text you place in here will be lost. If you need to comment on your tab, please use the "Tab Notes" section located below.